  0
SECTION
  2
HEADER
  9
$ACADVER
  1
AC1018
  9
$ACADMAINTVER
 70
     0
  9
$DWGCODEPAGE
  3
ANSI_1252
  9
$INSBASE
 10
0.0
 20
0.0
 30
0.0
  9
$EXTMIN
 10
1.000000000000000E+20
 20
1.000000000000000E+20
 30
1.000000000000000E+20
  9
$EXTMAX
 10
-1.000000000000000E+20
 20
-1.000000000000000E+20
 30
-1.000000000000000E+20
  9
$LIMMIN
 10
0.0
 20
0.0
  9
$LIMMAX
 10
12.0
 20
9.0
  9
$ORTHOMODE
 70
     0
  9
$REGENMODE
 70
     1
  9
$FILLMODE
 70
     1
  9
$QTEXTMODE
 70
     0
  9
$MIRRTEXT
 70
     1
  9
$LTSCALE
 40
1.0
  9
$ATTMODE
 70
     1
  9
$TEXTSIZE
 40
0.2
  9
$TRACEWID
 40
0.05
  9
$TEXTSTYLE
  7
Standard
  9
$CLAYER
  8
0
  9
$CELTYPE
  6
ByLayer
  9
$CECOLOR
 62
   256
  9
$CELTSCALE
 40
1.0
  9
$DISPSILH
 70
     0
  9
$DIMSCALE
 40
1.0
  9
$DIMASZ
 40
0.18
  9
$DIMEXO
 40
0.0625
  9
$DIMDLI
 40
0.38
  9
$DIMRND
 40
0.0
  9
$DIMDLE
 40
0.0
  9
$DIMEXE
 40
0.18
  9
$DIMTP
 40
0.0
  9
$DIMTM
 40
0.0
  9
$DIMTXT
 40
0.18
  9
$DIMCEN
 40
0.09
  9
$DIMTSZ
 40
0.0
  9
$DIMTOL
 70
     0
  9
$DIMLIM
 70
     0
  9
$DIMTIH
 70
     1
  9
$DIMTOH
 70
     1
  9
$DIMSE1
 70
     0
  9
$DIMSE2
 70
     0
  9
$DIMTAD
 70
     0
  9
$DIMZIN
 70
     0
  9
$DIMBLK
  1

  9
$DIMASO
 70
     1
  9
$DIMSHO
 70
     1
  9
$DIMPOST
  1

  9
$DIMAPOST
  1

  9
$DIMALT
 70
     0
  9
$DIMALTD
 70
     2
  9
$DIMALTF
 40
25.4
  9
$DIMLFAC
 40
1.0
  9
$DIMTOFL
 70
     0
  9
$DIMTVP
 40
0.0
  9
$DIMTIX
 70
     0
  9
$DIMSOXD
 70
     0
  9
$DIMSAH
 70
     0
  9
$DIMBLK1
  1

  9
$DIMBLK2
  1

  9
$DIMSTYLE
  2
Standard
  9
$DIMCLRD
 70
     0
  9
$DIMCLRE
 70
     0
  9
$DIMCLRT
 70
     0
  9
$DIMTFAC
 40
1.0
  9
$DIMGAP
 40
0.09
  9
$DIMJUST
 70
     0
  9
$DIMSD1
 70
     0
  9
$DIMSD2
 70
     0
  9
$DIMTOLJ
 70
     1
  9
$DIMTZIN
 70
     0
  9
$DIMALTZ
 70
     0
  9
$DIMALTTZ
 70
     0
  9
$DIMUPT
 70
     0
  9
$DIMDEC
 70
     4
  9
$DIMTDEC
 70
     4
  9
$DIMALTU
 70
     2
  9
$DIMALTTD
 70
     2
  9
$DIMTXSTY
  7
Standard
  9
$DIMAUNIT
 70
     0
  9
$DIMADEC
 70
     0
  9
$DIMALTRND
 40
0.0
  9
$DIMAZIN
 70
     0
  9
$DIMDSEP
 70
    46
  9
$DIMATFIT
 70
     3
  9
$DIMFRAC
 70
     0
  9
$DIMLDRBLK
  1

  9
$DIMLUNIT
 70
     2
  9
$DIMLWD
 70
    -2
  9
$DIMLWE
 70
    -2
  9
$DIMTMOVE
 70
     0
  9
$LUNITS
 70
     2
  9
$LUPREC
 70
     4
  9
$SKETCHINC
 40
0.1
  9
$FILLETRAD
 40
0.5
  9
$AUNITS
 70
     0
  9
$AUPREC
 70
     0
  9
$MENU
  1
.
  9
$ELEVATION
 40
0.0
  9
$PELEVATION
 40
0.0
  9
$THICKNESS
 40
0.0
  9
$LIMCHECK
 70
     0
  9
$CHAMFERA
 40
0.5
  9
$CHAMFERB
 40
0.5
  9
$CHAMFERC
 40
1.0
  9
$CHAMFERD
 40
0.0
  9
$SKPOLY
 70
     0
  9
$TDCREATE
 40
2457241.906817338
  9
$TDUCREATE
 40
2457242.156817338
  9
$TDUPDATE
 40
2457241.90681735
  9
$TDUUPDATE
 40
2457242.15681735
  9
$TDINDWG
 40
0.0000000116
  9
$TDUSRTIMER
 40
0.0000000116
  9
$USRTIMER
 70
     1
  9
$ANGBASE
 50
0.0
  9
$ANGDIR
 70
     0
  9
$PDMODE
 70
     0
  9
$PDSIZE
 40
0.0
  9
$PLINEWID
 40
0.0
  9
$SPLFRAME
 70
     0
  9
$SPLINETYPE
 70
     6
  9
$SPLINESEGS
 70
     8
  9
$HANDSEED
  5
58
  9
$SURFTAB1
 70
     6
  9
$SURFTAB2
 70
     6
  9
$SURFTYPE
 70
     6
  9
$SURFU
 70
     6
  9
$SURFV
 70
     6
  9
$UCSBASE
  2

  9
$UCSNAME
  2

  9
$UCSORG
 10
0.0
 20
0.0
 30
0.0
  9
$UCSXDIR
 10
1.0
 20
0.0
 30
0.0
  9
$UCSYDIR
 10
0.0
 20
1.0
 30
0.0
  9
$UCSORTHOREF
  2

  9
$UCSORTHOVIEW
 70
     0
  9
$UCSORGTOP
 10
0.0
 20
0.0
 30
0.0
  9
$UCSORGBOTTOM
 10
0.0
 20
0.0
 30
0.0
  9
$UCSORGLEFT
 10
0.0
 20
0.0
 30
0.0
  9
$UCSORGRIGHT
 10
0.0
 20
0.0
 30
0.0
  9
$UCSORGFRONT
 10
0.0
 20
0.0
 30
0.0
  9
$UCSORGBACK
 10
0.0
 20
0.0
 30
0.0
  9
$PUCSBASE
  2

  9
$PUCSNAME
  2

  9
$PUCSORG
 10
0.0
 20
0.0
 30
0.0
  9
$PUCSXDIR
 10
1.0
 20
0.0
 30
0.0
  9
$PUCSYDIR
 10
0.0
 20
1.0
 30
0.0
  9
$PUCSORTHOREF
  2

  9
$PUCSORTHOVIEW
 70
     0
  9
$PUCSORGTOP
 10
0.0
 20
0.0
 30
0.0
  9
$PUCSORGBOTTOM
 10
0.0
 20
0.0
 30
0.0
  9
$PUCSORGLEFT
 10
0.0
 20
0.0
 30
0.0
  9
$PUCSORGRIGHT
 10
0.0
 20
0.0
 30
0.0
  9
$PUCSORGFRONT
 10
0.0
 20
0.0
 30
0.0
  9
$PUCSORGBACK
 10
0.0
 20
0.0
 30
0.0
  9
$USERI1
 70
     0
  9
$USERI2
 70
     0
  9
$USERI3
 70
     0
  9
$USERI4
 70
     0
  9
$USERI5
 70
     0
  9
$USERR1
 40
0.0
  9
$USERR2
 40
0.0
  9
$USERR3
 40
0.0
  9
$USERR4
 40
0.0
  9
$USERR5
 40
0.0
  9
$WORLDVIEW
 70
     1
  9
$SHADEDGE
 70
     3
  9
$SHADEDIF
 70
    70
  9
$TILEMODE
 70
     1
  9
$MAXACTVP
 70
    64
  9
$PINSBASE
 10
0.0
 20
0.0
 30
0.0
  9
$PLIMCHECK
 70
     0
  9
$PEXTMIN
 10
1.000000000000000E+20
 20
1.000000000000000E+20
 30
1.000000000000000E+20
  9
$PEXTMAX
 10
-1.000000000000000E+20
 20
-1.000000000000000E+20
 30
-1.000000000000000E+20
  9
$PLIMMIN
 10
0.0
 20
0.0
  9
$PLIMMAX
 10
12.0
 20
9.0
  9
$UNITMODE
 70
     0
  9
$VISRETAIN
 70
     1
  9
$PLINEGEN
 70
     0
  9
$PSLTSCALE
 70
     1
  9
$TREEDEPTH
 70
  3020
  9
$CMLSTYLE
  2
Standard
  9
$CMLJUST
 70
     0
  9
$CMLSCALE
 40
1.0
  9
$PROXYGRAPHICS
 70
     1
  9
$MEASUREMENT
 70
     0
  9
$CELWEIGHT
370
    -1
  9
$ENDCAPS
280
     0
  9
$JOINSTYLE
280
     0
  9
$LWDISPLAY
290
     1
  9
$INSUNITS
 70
     1
  9
$HYPERLINKBASE
  1

  9
$STYLESHEET
  1

  9
$XEDIT
290
     1
  9
$CEPSNTYPE
380
     0
  9
$PSTYLEMODE
290
     1
  9
$FINGERPRINTGUID
  2
{1B01CCEE-1110-4902-97FF-26F84E08A71C}
  9
$VERSIONGUID
  2
{FAEB1C32-E019-11D5-929B-00C0DF256EC4}
  9
$EXTNAMES
290
     1
  9
$PSVPSCALE
 40
0.0
  9
$OLESTARTUP
290
     0
  9
$SORTENTS
280
   127
  9
$INDEXCTL
280
     0
  9
$HIDETEXT
280
     1
  9
$XCLIPFRAME
290
     0
  9
$HALOGAP
280
     0
  9
$OBSCOLOR
 70
   257
  9
$OBSLTYPE
280
     0
  9
$INTERSECTIONDISPLAY
280
     0
  9
$INTERSECTIONCOLOR
 70
   257
  9
$DIMASSOC
280
     2
  9
$PROJECTNAME
  1

  0
ENDSEC
  0
SECTION
  2
CLASSES
  0
CLASS
  1
ACDBDICTIONARYWDFLT
  2
AcDbDictionaryWithDefault
  3
ObjectDBX Classes
 90
        0
 91
        3
280
     0
281
     0
  0
CLASS
  1
VISUALSTYLE
  2
AcDbVisualStyle
  3
ObjectDBX Classes
 90
     4095
 91
        3
280
     0
281
     0
  0
ENDSEC
  0
SECTION
  2
TABLES
  0
TABLE
  2
VPORT
  5
8
330
0
100
AcDbSymbolTable
 70
     1
  0
VPORT
  5
29
330
8
100
AcDbSymbolTableRecord
100
AcDbViewportTableRecord
  2
*Active
 70
     0
 10
0.0
 20
0.0
 11
1.0
 21
1.0
 12
0.0
 22
0.0
 13
0.0
 23
0.0
 14
0.5
 24
0.5
 15
0.5
 25
0.5
 16
0.0
 26
0.0
 36
1.0
 17
3.61111111111111
 27
5.222222222222221
 37
0.0
 40
21.22222222222222
 41
1.547120418848167
 42
50.0
 43
0.0
 44
0.0
 50
0.0
 51
0.0
 71
     0
 72
   100
 73
     1
 74
     3
 75
     0
 76
     0
 77
     0
 78
     0
281
     0
 65
     1
110
0.0
120
0.0
130
0.0
111
1.0
121
0.0
131
0.0
112
0.0
122
1.0
132
0.0
 79
     0
146
0.0
  0
ENDTAB
  0
TABLE
  2
LTYPE
  5
5
330
0
100
AcDbSymbolTable
 70
     1
  0
LTYPE
  5
14
330
5
100
AcDbSymbolTableRecord
100
AcDbLinetypeTableRecord
  2
ByBlock
 70
     0
  3

 72
    65
 73
     0
 40
0.0
  0
LTYPE
  5
15
330
5
100
AcDbSymbolTableRecord
100
AcDbLinetypeTableRecord
  2
ByLayer
 70
     0
  3

 72
    65
 73
     0
 40
0.0
  0
LTYPE
  5
16
330
5
100
AcDbSymbolTableRecord
100
AcDbLinetypeTableRecord
  2
Continuous
 70
     0
  3
Solid line
 72
    65
 73
     0
 40
0.0
  0
ENDTAB
  0
TABLE
  2
LAYER
  5
2
330
0
100
AcDbSymbolTable
 70
     2
  0
LAYER
  5
10
330
2
100
AcDbSymbolTableRecord
100
AcDbLayerTableRecord
  2
0
 70
     0
 62
     7
  6
Continuous
370
    -3
390
F
  0
LAYER
  5
3B
330
2
100
AcDbSymbolTableRecord
100
AcDbLayerTableRecord
  2
Layer 1
 70
     0
 62
     7
  6
Continuous
370
    -3
390
F
  0
ENDTAB
  0
TABLE
  2
STYLE
  5
3
330
0
100
AcDbSymbolTable
 70
     1
  0
STYLE
  5
11
330
3
100
AcDbSymbolTableRecord
100
AcDbTextStyleTableRecord
  2
Standard
 70
     0
 40
0.0
 41
1.0
 50
0.0
 71
     0
 42
0.2
  3
txt
  4

  0
ENDTAB
  0
TABLE
  2
VIEW
  5
6
330
0
100
AcDbSymbolTable
 70
     0
  0
ENDTAB
  0
TABLE
  2
UCS
  5
7
330
0
100
AcDbSymbolTable
 70
     0
  0
ENDTAB
  0
TABLE
  2
APPID
  5
9
330
0
100
AcDbSymbolTable
 70
     1
  0
APPID
  5
12
330
9
100
AcDbSymbolTableRecord
100
AcDbRegAppTableRecord
  2
ACAD
 70
     0
  0
ENDTAB
  0
TABLE
  2
DIMSTYLE
  5
A
330
0
100
AcDbSymbolTable
 70
     1
100
AcDbDimStyleTable
  0
DIMSTYLE
105
27
330
A
100
AcDbSymbolTableRecord
100
AcDbDimStyleTableRecord
  2
Standard
 70
     0
340
11
  0
ENDTAB
  0
TABLE
  2
BLOCK_RECORD
  5
1
330
0
100
AcDbSymbolTable
 70
     1
  0
BLOCK_RECORD
  5
1F
330
1
100
AcDbSymbolTableRecord
100
AcDbBlockTableRecord
  2
*Model_Space
340
22
  0
BLOCK_RECORD
  5
1B
330
1
100
AcDbSymbolTableRecord
100
AcDbBlockTableRecord
  2
*Paper_Space
340
1E
  0
BLOCK_RECORD
  5
23
330
1
100
AcDbSymbolTableRecord
100
AcDbBlockTableRecord
  2
*Paper_Space0
340
26
  0
ENDTAB
  0
ENDSEC
  0
SECTION
  2
BLOCKS
  0
BLOCK
  5
20
330
1F
100
AcDbEntity
  8
0
100
AcDbBlockBegin
  2
*Model_Space
 70
     0
 71
     0
 10
0.0
 20
0.0
 30
0.0
  3
*Model_Space
  1

  0
ENDBLK
  5
21
330
1F
100
AcDbEntity
  8
0
100
AcDbBlockEnd
  0
BLOCK
  5
1C
330
1B
100
AcDbEntity
 67
     1
  8
0
100
AcDbBlockBegin
  2
*Paper_Space
 70
     0
 71
     0
 10
0.0
 20
0.0
 30
0.0
  3
*Paper_Space
  1

  0
ENDBLK
  5
1D
330
1B
100
AcDbEntity
 67
     1
  8
0
100
AcDbBlockEnd
  0
BLOCK
  5
24
330
23
100
AcDbEntity
  8
0
100
AcDbBlockBegin
  2
*Paper_Space0
 70
     0
 71
     0
 10
0.0
 20
0.0
 30
0.0
  3
*Paper_Space0
  1

  0
ENDBLK
  5
25
330
23
100
AcDbEntity
  8
0
100
AcDbBlockEnd
  0
ENDSEC
  0
SECTION
  2
ENTITIES
  0
SPLINE
  5
3C
330
1F
100
AcDbEntity
  8
Layer 1
370
     0
100
AcDbSpline
210
0.0
220
0.0
230
1.0
 70
    11
 71
     3
 72
   608
 73
   604
 74
     0
 42
0.0000000001
 43
0.0000000001
 40
0.0
 40
0.0
 40
0.0
 40
0.0
 40
1.0
 40
1.0
 40
1.0
 40
2.0
 40
2.0
 40
2.0
 40
3.0
 40
3.0
 40
3.0
 40
4.0
 40
4.0
 40
4.0
 40
5.0
 40
5.0
 40
5.0
 40
6.0
 40
6.0
 40
6.0
 40
7.0
 40
7.0
 40
7.0
 40
8.0
 40
8.0
 40
8.0
 40
9.0
 40
9.0
 40
9.0
 40
10.0
 40
10.0
 40
10.0
 40
11.0
 40
11.0
 40
11.0
 40
12.0
 40
12.0
 40
12.0
 40
13.0
 40
13.0
 40
13.0
 40
14.0
 40
14.0
 40
14.0
 40
15.0
 40
15.0
 40
15.0
 40
16.0
 40
16.0
 40
16.0
 40
17.0
 40
17.0
 40
17.0
 40
18.0
 40
18.0
 40
18.0
 40
19.0
 40
19.0
 40
19.0
 40
20.0
 40
20.0
 40
20.0
 40
21.0
 40
21.0
 40
21.0
 40
22.0
 40
22.0
 40
22.0
 40
23.0
 40
23.0
 40
23.0
 40
24.0
 40
24.0
 40
24.0
 40
25.0
 40
25.0
 40
25.0
 40
26.0
 40
26.0
 40
26.0
 40
27.0
 40
27.0
 40
27.0
 40
28.0
 40
28.0
 40
28.0
 40
29.0
 40
29.0
 40
29.0
 40
30.0
 40
30.0
 40
30.0
 40
31.0
 40
31.0
 40
31.0
 40
32.0
 40
32.0
 40
32.0
 40
33.0
 40
33.0
 40
33.0
 40
34.0
 40
34.0
 40
34.0
 40
35.0
 40
35.0
 40
35.0
 40
36.0
 40
36.0
 40
36.0
 40
37.0
 40
37.0
 40
37.0
 40
38.0
 40
38.0
 40
38.0
 40
39.0
 40
39.0
 40
39.0
 40
40.0
 40
40.0
 40
40.0
 40
41.0
 40
41.0
 40
41.0
 40
42.0
 40
42.0
 40
42.0
 40
43.0
 40
43.0
 40
43.0
 40
44.0
 40
44.0
 40
44.0
 40
45.0
 40
45.0
 40
45.0
 40
46.0
 40
46.0
 40
46.0
 40
47.0
 40
47.0
 40
47.0
 40
48.0
 40
48.0
 40
48.0
 40
49.0
 40
49.0
 40
49.0
 40
50.0
 40
50.0
 40
50.0
 40
51.0
 40
51.0
 40
51.0
 40
52.0
 40
52.0
 40
52.0
 40
53.0
 40
53.0
 40
53.0
 40
54.0
 40
54.0
 40
54.0
 40
55.0
 40
55.0
 40
55.0
 40
56.0
 40
56.0
 40
56.0
 40
57.0
 40
57.0
 40
57.0
 40
58.0
 40
58.0
 40
58.0
 40
59.0
 40
59.0
 40
59.0
 40
60.0
 40
60.0
 40
60.0
 40
61.0
 40
61.0
 40
61.0
 40
62.0
 40
62.0
 40
62.0
 40
63.0
 40
63.0
 40
63.0
 40
64.0
 40
64.0
 40
64.0
 40
65.0
 40
65.0
 40
65.0
 40
66.0
 40
66.0
 40
66.0
 40
67.0
 40
67.0
 40
67.0
 40
68.0
 40
68.0
 40
68.0
 40
69.0
 40
69.0
 40
69.0
 40
70.0
 40
70.0
 40
70.0
 40
71.0
 40
71.0
 40
71.0
 40
72.0
 40
72.0
 40
72.0
 40
73.0
 40
73.0
 40
73.0
 40
74.0
 40
74.0
 40
74.0
 40
75.0
 40
75.0
 40
75.0
 40
76.0
 40
76.0
 40
76.0
 40
77.0
 40
77.0
 40
77.0
 40
78.0
 40
78.0
 40
78.0
 40
79.0
 40
79.0
 40
79.0
 40
80.0
 40
80.0
 40
80.0
 40
81.0
 40
81.0
 40
81.0
 40
82.0
 40
82.0
 40
82.0
 40
83.0
 40
83.0
 40
83.0
 40
84.0
 40
84.0
 40
84.0
 40
85.0
 40
85.0
 40
85.0
 40
86.0
 40
86.0
 40
86.0
 40
87.0
 40
87.0
 40
87.0
 40
88.0
 40
88.0
 40
88.0
 40
89.0
 40
89.0
 40
89.0
 40
90.0
 40
90.0
 40
90.0
 40
91.0
 40
91.0
 40
91.0
 40
92.0
 40
92.0
 40
92.0
 40
93.0
 40
93.0
 40
93.0
 40
94.0
 40
94.0
 40
94.0
 40
95.0
 40
95.0
 40
95.0
 40
96.0
 40
96.0
 40
96.0
 40
97.0
 40
97.0
 40
97.0
 40
98.0
 40
98.0
 40
98.0
 40
99.0
 40
99.0
 40
99.0
 40
100.0
 40
100.0
 40
100.0
 40
101.0
 40
101.0
 40
101.0
 40
102.0
 40
102.0
 40
102.0
 40
103.0
 40
103.0
 40
103.0
 40
104.0
 40
104.0
 40
104.0
 40
105.0
 40
105.0
 40
105.0
 40
106.0
 40
106.0
 40
106.0
 40
107.0
 40
107.0
 40
107.0
 40
108.0
 40
108.0
 40
108.0
 40
109.0
 40
109.0
 40
109.0
 40
110.0
 40
110.0
 40
110.0
 40
111.0
 40
111.0
 40
111.0
 40
112.0
 40
112.0
 40
112.0
 40
113.0
 40
113.0
 40
113.0
 40
114.0
 40
114.0
 40
114.0
 40
115.0
 40
115.0
 40
115.0
 40
116.0
 40
116.0
 40
116.0
 40
117.0
 40
117.0
 40
117.0
 40
118.0
 40
118.0
 40
118.0
 40
119.0
 40
119.0
 40
119.0
 40
120.0
 40
120.0
 40
120.0
 40
121.0
 40
121.0
 40
121.0
 40
122.0
 40
122.0
 40
122.0
 40
123.0
 40
123.0
 40
123.0
 40
124.0
 40
124.0
 40
124.0
 40
125.0
 40
125.0
 40
125.0
 40
126.0
 40
126.0
 40
126.0
 40
127.0
 40
127.0
 40
127.0
 40
128.0
 40
128.0
 40
128.0
 40
129.0
 40
129.0
 40
129.0
 40
130.0
 40
130.0
 40
130.0
 40
131.0
 40
131.0
 40
131.0
 40
132.0
 40
132.0
 40
132.0
 40
133.0
 40
133.0
 40
133.0
 40
134.0
 40
134.0
 40
134.0
 40
135.0
 40
135.0
 40
135.0
 40
136.0
 40
136.0
 40
136.0
 40
137.0
 40
137.0
 40
137.0
 40
138.0
 40
138.0
 40
138.0
 40
139.0
 40
139.0
 40
139.0
 40
140.0
 40
140.0
 40
140.0
 40
141.0
 40
141.0
 40
141.0
 40
142.0
 40
142.0
 40
142.0
 40
143.0
 40
143.0
 40
143.0
 40
144.0
 40
144.0
 40
144.0
 40
145.0
 40
145.0
 40
145.0
 40
146.0
 40
146.0
 40
146.0
 40
147.0
 40
147.0
 40
147.0
 40
148.0
 40
148.0
 40
148.0
 40
149.0
 40
149.0
 40
149.0
 40
150.0
 40
150.0
 40
150.0
 40
151.0
 40
151.0
 40
151.0
 40
152.0
 40
152.0
 40
152.0
 40
153.0
 40
153.0
 40
153.0
 40
154.0
 40
154.0
 40
154.0
 40
155.0
 40
155.0
 40
155.0
 40
156.0
 40
156.0
 40
156.0
 40
157.0
 40
157.0
 40
157.0
 40
158.0
 40
158.0
 40
158.0
 40
159.0
 40
159.0
 40
159.0
 40
160.0
 40
160.0
 40
160.0
 40
161.0
 40
161.0
 40
161.0
 40
162.0
 40
162.0
 40
162.0
 40
163.0
 40
163.0
 40
163.0
 40
164.0
 40
164.0
 40
164.0
 40
165.0
 40
165.0
 40
165.0
 40
166.0
 40
166.0
 40
166.0
 40
167.0
 40
167.0
 40
167.0
 40
168.0
 40
168.0
 40
168.0
 40
169.0
 40
169.0
 40
169.0
 40
170.0
 40
170.0
 40
170.0
 40
171.0
 40
171.0
 40
171.0
 40
172.0
 40
172.0
 40
172.0
 40
173.0
 40
173.0
 40
173.0
 40
174.0
 40
174.0
 40
174.0
 40
175.0
 40
175.0
 40
175.0
 40
176.0
 40
176.0
 40
176.0
 40
177.0
 40
177.0
 40
177.0
 40
178.0
 40
178.0
 40
178.0
 40
179.0
 40
179.0
 40
179.0
 40
180.0
 40
180.0
 40
180.0
 40
181.0
 40
181.0
 40
181.0
 40
182.0
 40
182.0
 40
182.0
 40
183.0
 40
183.0
 40
183.0
 40
184.0
 40
184.0
 40
184.0
 40
185.0
 40
185.0
 40
185.0
 40
186.0
 40
186.0
 40
186.0
 40
187.0
 40
187.0
 40
187.0
 40
188.0
 40
188.0
 40
188.0
 40
189.0
 40
189.0
 40
189.0
 40
190.0
 40
190.0
 40
190.0
 40
191.0
 40
191.0
 40
191.0
 40
192.0
 40
192.0
 40
192.0
 40
193.0
 40
193.0
 40
193.0
 40
194.0
 40
194.0
 40
194.0
 40
195.0
 40
195.0
 40
195.0
 40
196.0
 40
196.0
 40
196.0
 40
197.0
 40
197.0
 40
197.0
 40
198.0
 40
198.0
 40
198.0
 40
199.0
 40
199.0
 40
199.0
 40
200.0
 40
200.0
 40
200.0
 40
201.0
 40
201.0
 40
201.0
 40
201.0
 10
17.97153049045139
 20
12.02422417534722
 30
0.0
 10
17.97153049045139
 20
12.02422417534722
 30
0.0
 10
14.98682996961806
 20
12.58417426215278
 30
0.0
 10
14.98682996961806
 20
12.58417426215278
 30
0.0
 10
14.86456976996528
 20
12.60712348090278
 30
0.0
 10
14.77712673611111
 20
12.71405707465278
 30
0.0
 10
14.7789306640625
 20
12.83843315972222
 30
0.0
 10
14.7789306640625
 20
12.83843315972222
 30
0.0
 10
14.77943250868056
 20
12.87247721354167
 30
0.0
 10
14.77943250868056
 20
12.87247721354167
 30
0.0
 10
14.78038194444444
 20
12.93793402777778
 30
0.0
 10
14.75579155815972
 20
12.99983723958333
 30
0.0
 10
14.71017795138889
 20
13.04679361979167
 30
0.0
 10
14.66456434461806
 20
13.09375
 30
0.0
 10
14.6033935546875
 20
13.12014431423611
 30
0.0
 10
14.53793674045139
 20
13.12109375
 30
0.0
 10
14.53793674045139
 20
13.12109375
 30
0.0
 10
14.53438313802083
 20
13.12112087673611
 30
0.0
 10
14.53438313802083
 20
13.12112087673611
 30
0.0
 10
14.53438313802083
 20
13.12112087673611
 30
0.0
 10
13.03803168402778
 20
13.12112087673611
 30
0.0
 10
13.03803168402778
 20
13.12112087673611
 30
0.0
 10
12.90289984809028
 20
13.12112087673611
 30
0.0
 10
12.79295518663194
 20
13.01117621527778
 30
0.0
 10
12.79295518663194
 20
12.87603081597222
 30
0.0
 10
12.79295518663194
 20
12.87603081597222
 30
0.0
 10
12.79513888888889
 20
9.203423394097221
 30
0.0
 10
12.79513888888889
 20
9.203423394097221
 30
0.0
 10
12.79513888888889
 20
9.20315212673611
 30
0.0
 10
12.79503038194444
 20
9.20290798611111
 30
0.0
 10
12.79498969184028
 20
9.202650282118055
 30
0.0
 10
12.79562717013889
 20
9.202446831597221
 30
0.0
 10
12.79633246527778
 20
9.202473958333332
 30
0.0
 10
12.796875
 20
9.201999240451388
 30
0.0
 10
12.79823133680556
 20
9.200792100694445
 30
0.0
 10
12.79953342013889
 20
9.199530707465277
 30
0.0
 10
12.80079481336806
 20
9.198215060763888
 30
0.0
 10
12.82291666666667
 20
9.174886067708332
 30
0.0
 10
12.82310655381944
 20
9.13894314236111
 30
0.0
 10
12.80257161458333
 20
9.115098741319445
 30
0.0
 10
12.80240885416667
 20
9.114854600694445
 30
0.0
 10
12.802490234375
 20
9.11452907986111
 30
0.0
 10
12.80228678385417
 20
9.114298502604166
 30
0.0
 10
12.80107964409722
 20
9.112955729166666
 30
0.0
 10
12.79983181423611
 20
9.111667209201388
 30
0.0
 10
12.79854329427083
 20
9.110419379340277
 30
0.0
 10
12.79854329427083
 20
9.110419379340277
 30
0.0
 10
12.79852973090278
 20
9.110405815972221
 30
0.0
 10
12.79852973090278
 20
9.110405815972221
 30
0.0
 10
12.79852973090278
 20
9.110405815972221
 30
0.0
 10
12.79851616753472
 20
9.110405815972221
 30
0.0
 10
12.79851616753472
 20
9.110392252604166
 30
0.0
 10
12.79718695746528
 20
9.109130859375
 30
0.0
 10
12.79580349392361
 20
9.10793728298611
 30
0.0
 10
12.79437934027778
 20
9.106797960069445
 30
0.0
 10
12.79336208767361
 20
9.105997721354166
 30
0.0
 10
12.792236328125
 20
9.105414496527777
 30
0.0
 10
12.79117838541667
 20
9.104682074652777
 30
0.0
 10
12.78990342881944
 20
9.10378689236111
 30
0.0
 10
12.78862847222222
 20
9.102891710069445
 30
0.0
 10
12.78729926215278
 20
9.102105034722221
 30
0.0
 10
12.78525119357639
 20
9.100911458333332
 30
0.0
 10
12.78316243489583
 20
9.099907769097221
 30
0.0
 10
12.78103298611111
 20
9.098958333333332
 30
0.0
 10
12.77978515625
 20
9.098388671875
 30
0.0
 10
12.778564453125
 20
9.0977783203125
 30
0.0
 10
12.77728949652778
 20
9.097303602430555
 30
0.0
 10
12.77479383680556
 20
9.096381293402777
 30
0.0
 10
12.77225748697917
 20
9.09573025173611
 30
0.0
 10
12.76969401041667
 20
9.095133463541666
 30
0.0
 10
12.76869032118056
 20
9.094916449652777
 30
0.0
 10
12.76771375868056
 20
9.094563802083332
 30
0.0
 10
12.76671006944444
 20
9.09438747829861
 30
0.0
 10
12.76310221354167
 20
9.09375
 30
0.0
 10
12.75946723090278
 20
9.093370225694445
 30
0.0
 10
12.75581868489583
 20
9.093370225694445
 30
0.0
 10
12.75577799479167
 20
9.093370225694445
 30
0.0
 10
12.7557373046875
 20
9.0933837890625
 30
0.0
 10
12.75569661458333
 20
9.0933837890625
 30
0.0
 10
12.75135633680556
 20
9.093397352430555
 30
0.0
 10
12.74705674913194
 20
9.09389919704861
 30
0.0
 10
12.74281141493056
 20
9.094807942708332
 30
0.0
 10
12.741455078125
 20
9.095079210069445
 30
0.0
 10
12.74018012152778
 20
9.095635308159721
 30
0.0
 10
12.73883734809028
 20
9.096015082465277
 30
0.0
 10
12.73597547743056
 20
9.09682888454861
 30
0.0
 10
12.73312717013889
 20
9.09768337673611
 30
0.0
 10
12.73038736979167
 20
9.09890407986111
 30
0.0
 10
12.72878689236111
 20
9.099609375
 30
0.0
 10
12.72732204861111
 20
9.100558810763888
 30
0.0
 10
12.72578938802083
 20
9.101399739583332
 30
0.0
 10
12.72345648871528
 20
9.102701822916666
 30
0.0
 10
12.72116427951389
 20
9.10400390625
 30
0.0
 10
12.71898057725694
 20
9.105631510416666
 30
0.0
 10
12.71742078993056
 20
9.106770833333332
 30
0.0
 10
12.71599663628472
 20
9.108113606770832
 30
0.0
 10
12.71453179253472
 20
9.109429253472221
 30
0.0
 10
12.71327039930556
 20
9.110541449652777
 30
0.0
 10
12.71188693576389
 20
9.1114501953125
 30
0.0
 10
12.71070692274306
 20
9.112684461805555
 30
0.0
 10
12.70944552951389
 20
9.114013671875
 30
0.0
 10
12.708251953125
 20
9.11538357204861
 30
0.0
 10
12.70711263020833
 20
9.1168212890625
 30
0.0
 10
12.70711263020833
 20
9.1168212890625
 30
0.0
 10
12.70711263020833
 20
9.1168212890625
 30
0.0
 10
12.70711263020833
 20
9.1168212890625
 30
0.0
 10
12.70711263020833
 20
9.116834852430555
 30
0.0
 10
12.70709906684028
 20
9.116834852430555
 30
0.0
 10
12.70709906684028
 20
9.116834852430555
 30
0.0
 10
12.70709906684028
 20
9.116834852430555
 30
0.0
 10
12.70709906684028
 20
9.116834852430555
 30
0.0
 10
12.70709906684028
 20
9.11684841579861
 30
0.0
 10
12.68580457899306
 20
9.1436767578125
 30
0.0
 10
12.69033474392361
 20
9.182807074652777
 30
0.0
 10
12.71713595920139
 20
9.204087999131945
 30
0.0
 10
12.71812608506944
 20
9.20486111111111
 30
0.0
 10
12.71931966145833
 20
9.20510525173611
 30
0.0
 10
12.72048611111111
 20
9.205050998263888
 30
0.0
 10
12.72048611111111
 20
9.205050998263888
 30
0.0
 10
12.14214409722222
 20
12.92431640625
 30
0.0
 10
12.14214409722222
 20
12.92431640625
 30
0.0
 10
12.14214409722222
 20
12.92431640625
 30
0.0
 10
12.10923936631944
 20
13.13590494791667
 30
0.0
 10
12.10923936631944
 20
13.13590494791667
 30
0.0
 10
12.10921223958333
 20
13.13604058159722
 30
0.0
 10
12.10926649305556
 20
13.13616265190972
 30
0.0
 10
12.1092529296875
 20
13.13629828559028
 30
0.0
 10
12.1092529296875
 20
13.13642035590278
 30
0.0
 10
12.10918511284722
 20
13.13652886284722
 30
0.0
 10
12.10918511284722
 20
13.13666449652778
 30
0.0
 10
12.10918511284722
 20
13.13666449652778
 30
0.0
 10
12.10918511284722
 20
13.18790690104167
 30
0.0
 10
12.10918511284722
 20
13.18790690104167
 30
0.0
 10
12.10915798611111
 20
13.18815104166667
 30
0.0
 10
12.10904947916667
 20
13.18834092881944
 30
0.0
 10
12.10904947916667
 20
13.18858506944444
 30
0.0
 10
12.10904947916667
 20
13.18858506944444
 30
0.0
 10
12.10904947916667
 20
15.18366156684028
 30
0.0
 10
12.10904947916667
 20
15.18366156684028
 30
0.0
 10
12.10904947916667
 20
15.18366156684028
 30
0.0
 10
11.89998372395833
 20
15.18366156684028
 30
0.0
 10
11.89998372395833
 20
15.18366156684028
 30
0.0
 10
11.89998372395833
 20
15.18366156684028
 30
0.0
 10
-4.677761501736111
 20
15.18366156684028
 30
0.0
 10
-4.677761501736111
 20
15.18366156684028
 30
0.0
 10
-4.677761501736111
 20
15.18366156684028
 30
0.0
 10
-4.8868408203125
 20
15.18366156684028
 30
0.0
 10
-4.8868408203125
 20
15.18366156684028
 30
0.0
 10
-4.8868408203125
 20
15.18366156684028
 30
0.0
 10
-4.886962890625
 20
13.18858506944444
 30
0.0
 10
-4.886962890625
 20
13.18858506944444
 30
0.0
 10
-4.886962890625
 20
13.18858506944444
 30
0.0
 10
-4.886962890625
 20
13.13666449652778
 30
0.0
 10
-4.886962890625
 20
13.13666449652778
 30
0.0
 10
-4.886962890625
 20
13.13652886284722
 30
0.0
 10
-4.887044270833333
 20
13.13640679253472
 30
0.0
 10
-4.887044270833333
 20
13.13627115885417
 30
0.0
 10
-4.887057834201388
 20
13.13614908854167
 30
0.0
 10
-4.887017144097222
 20
13.13604058159722
 30
0.0
 10
-4.887030707465278
 20
13.13590494791667
 30
0.0
 10
-4.887030707465278
 20
13.13590494791667
 30
0.0
 10
-4.919921875
 20
12.92431640625
 30
0.0
 10
-4.919921875
 20
12.92431640625
 30
0.0
 10
-4.919921875
 20
12.92431640625
 30
0.0
 10
-4.919921875
 20
12.92431640625
 30
0.0
 10
-4.919921875
 20
12.92431640625
 30
0.0
 10
-4.919921875
 20
12.92431640625
 30
0.0
 10
-4.919921875
 20
12.92431640625
 30
0.0
 10
-4.919921875
 20
12.92431640625
 30
0.0
 10
-4.919921875
 20
12.92431640625
 30
0.0
 10
-5.496554904513888
 20
9.221164279513888
 30
0.0
 10
-5.496554904513888
 20
9.221164279513888
 30
0.0
 10
-5.495442708333333
 20
9.221123589409721
 30
0.0
 10
-5.494316948784722
 20
9.220865885416666
 30
0.0
 10
-5.493421766493055
 20
9.220079210069445
 30
0.0
 10
-5.4920654296875
 20
9.2188720703125
 30
0.0
 10
-5.490749782986111
 20
9.217610677083332
 30
0.0
 10
-5.489488389756944
 20
9.216281467013888
 30
0.0
 10
-5.467380099826388
 20
9.192979600694445
 30
0.0
 10
-5.467203776041666
 20
9.157036675347221
 30
0.0
 10
-5.487725151909722
 20
9.133192274305555
 30
0.0
 10
-5.487874348958333
 20
9.132948133680555
 30
0.0
 10
-5.48779296875
 20
9.132622612847221
 30
0.0
 10
-5.488009982638888
 20
9.132392035590277
 30
0.0
 10
-5.489203559027778
 20
9.131049262152777
 30
0.0
 10
-5.490464952256944
 20
9.129747178819445
 30
0.0
 10
-5.491767035590278
 20
9.128499348958332
 30
0.0
 10
-5.491780598958333
 20
9.128472222222221
 30
0.0
 10
-5.491794162326388
 20
9.128472222222221
 30
0.0
 10
-5.491807725694444
 20
9.128472222222221
 30
0.0
 10
-5.493109809027778
 20
9.127210828993055
 30
0.0
 10
-5.494493272569444
 20
9.126030815972221
 30
0.0
 10
-5.495903862847222
 20
9.124891493055555
 30
0.0
 10
-5.495903862847222
 20
9.124891493055555
 30
0.0
 10
-5.495903862847222
 20
9.124891493055555
 30
0.0
 10
-5.495917426215278
 20
9.124891493055555
 30
0.0
 10
-5.4969482421875
 20
9.124077690972221
 30
0.0
 10
-5.498074001736111
 20
9.123480902777777
 30
0.0
 10
-5.499131944444444
 20
9.122748480902777
 30
0.0
 10
-5.500406901041666
 20
9.12185329861111
 30
0.0
 10
-5.501668294270833
 20
9.120985243055555
 30
0.0
 10
-5.502983940972222
 20
9.120198567708332
 30
0.0
 10
-5.505045572916666
 20
9.118977864583332
 30
0.0
 10
-5.507147894965278
 20
9.117974175347221
 30
0.0
 10
-5.509290907118055
 20
9.117024739583332
 30
0.0
 10
-5.510525173611111
 20
9.116455078125
 30
0.0
 10
-5.511745876736111
 20
9.115858289930555
 30
0.0
 10
-5.513007269965278
 20
9.11538357204861
 30
0.0
 10
-5.515516493055555
 20
9.114447699652777
 30
0.0
 10
-5.518093532986111
 20
9.113783094618055
 30
0.0
 10
-5.520670572916666
 20
9.113199869791666
 30
0.0
 10
-5.521647135416666
 20
9.112969292534721
 30
0.0
 10
-5.522596571180555
 20
9.112643771701388
 30
0.0
 10
-5.523573133680555
 20
9.112467447916666
 30
0.0
 10
-5.527180989583333
 20
9.11181640625
 30
0.0
 10
-5.530829535590278
 20
9.111436631944445
 30
0.0
 10
-5.534478081597222
 20
9.111436631944445
 30
0.0
 10
-5.534518771701388
 20
9.111436631944445
 30
0.0
 10
-5.534559461805555
 20
9.111463758680555
 30
0.0
 10
-5.534613715277778
 20
9.111463758680555
 30
0.0
 10
-5.538926866319444
 20
9.111463758680555
 30
0.0
 10
-5.543240017361111
 20
9.111979166666666
 30
0.0
 10
-5.5474853515625
 20
9.112874348958332
 30
0.0
 10
-5.548828125
 20
9.1131591796875
 30
0.0
 10
-5.550103081597222
 20
9.113715277777777
 30
0.0
 10
-5.551445855034722
 20
9.114095052083332
 30
0.0
 10
-5.5543212890625
 20
9.114908854166666
 30
0.0
 10
-5.557169596354166
 20
9.11574978298611
 30
0.0
 10
-5.559922960069444
 20
9.116984049479166
 30
0.0
 10
-5.561496310763888
 20
9.117689344618055
 30
0.0
 10
-5.562947591145833
 20
9.118625217013888
 30
0.0
 10
-5.564453125
 20
9.119466145833332
 30
0.0
 10
-5.566813151041666
 20
9.120768229166666
 30
0.0
 10
-5.569132486979166
 20
9.12209743923611
 30
0.0
 10
-5.571329752604166
 20
9.123711480034721
 30
0.0
 10
-5.5728759765625
 20
9.124850802951388
 30
0.0
 10
-5.574286566840278
 20
9.126180013020832
 30
0.0
 10
-5.575737847222222
 20
9.12746853298611
 30
0.0
 10
-5.576999240451388
 20
9.128607855902777
 30
0.0
 10
-5.578396267361111
 20
9.1295166015625
 30
0.0
 10
-5.57958984375
 20
9.130777994791666
 30
0.0
 10
-5.580851236979166
 20
9.132093641493055
 30
0.0
 10
-5.582044813368055
 20
9.133463541666666
 30
0.0
 10
-5.583197699652778
 20
9.134901258680555
 30
0.0
 10
-5.593505859375
 20
9.147894965277777
 30
0.0
 10
-5.59814453125
 20
9.164130316840277
 30
0.0
 10
-5.596245659722222
 20
9.180609809027777
 30
0.0
 10
-5.594346788194444
 20
9.197102864583332
 30
0.0
 10
-5.586154513888888
 20
9.211859809027777
 30
0.0
 10
-5.573160807291666
 20
9.22216796875
 30
0.0
 10
-5.572455512152778
 20
9.222724066840277
 30
0.0
 10
-5.571587456597222
 20
9.222737630208332
 30
0.0
 10
-5.570746527777778
 20
9.222859700520832
 30
0.0
 10
-5.570746527777778
 20
9.222859700520832
 30
0.0
 10
-5.570746527777778
 20
12.89504665798611
 30
0.0
 10
-5.570746527777778
 20
12.89504665798611
 30
0.0
 10
-5.570746527777778
 20
13.03017849392361
 30
0.0
 10
-5.680691189236111
 20
13.14010959201389
 30
0.0
 10
-5.815823025173611
 20
13.14010959201389
 30
0.0
 10
-5.815823025173611
 20
13.14010959201389
 30
0.0
 10
-7.315823025173611
 20
13.14010959201389
 30
0.0
 10
-7.315823025173611
 20
13.14010959201389
 30
0.0
 10
-7.450954861111111
 20
13.14010959201389
 30
0.0
 10
-7.560899522569444
 20
13.03017849392361
 30
0.0
 10
-7.560899522569444
 20
12.89504665798611
 30
0.0
 10
-7.560899522569444
 20
12.89504665798611
 30
0.0
 10
-7.560899522569444
 20
12.85251193576389
 30
0.0
 10
-7.560899522569444
 20
12.85251193576389
 30
0.0
 10
-7.560899522569444
 20
12.72992621527778
 30
0.0
 10
-7.648356119791666
 20
12.62455240885417
 30
0.0
 10
-7.768853081597221
 20
12.60196940104167
 30
0.0
 10
-7.768853081597221
 20
12.60196940104167
 30
0.0
 10
-10.74921332465278
 20
12.04314507378472
 30
0.0
 10
-10.74921332465278
 20
12.04314507378472
 30
0.0
 10
-11.21110026041667
 20
11.95654296875
 30
0.0
 10
-11.54462348090278
 20
11.56804741753472
 30
0.0
 10
-11.56035698784722
 20
11.09837510850694
 30
0.0
 10
-11.54619683159722
 20
10.67534722222222
 30
0.0
 10
-11.26512315538194
 20
10.30683051215278
 30
0.0
 10
-10.86089409722222
 20
10.18131510416667
 30
0.0
 10
-10.86089409722222
 20
10.18131510416667
 30
0.0
 10
-7.538384331597221
 20
9.149739583333332
 30
0.0
 10
-7.538384331597221
 20
9.149739583333332
 30
0.0
 10
-7.535793728298611
 20
9.14892578125
 30
0.0
 10
-7.534342447916666
 20
9.146185980902777
 30
0.0
 10
-7.53515625
 20
9.14358181423611
 30
0.0
 10
-7.535576714409721
 20
9.142225477430555
 30
0.0
 10
-7.536607530381944
 20
9.141357421875
 30
0.0
 10
-7.537787543402778
 20
9.140787760416666
 30
0.0
 10
-7.536105685763888
 20
9.140001085069445
 30
0.0
 10
-7.534925672743055
 20
9.138319227430555
 30
0.0
 10
-7.534925672743055
 20
9.136338975694445
 30
0.0
 10
-7.534925672743055
 20
9.136338975694445
 30
0.0
 10
-7.534925672743055
 20
8.95254177517361
 30
0.0
 10
-7.534925672743055
 20
8.95254177517361
 30
0.0
 10
-7.534925672743055
 20
8.95254177517361
 30
0.0
 10
-7.534925672743055
 20
2.281317816840278
 30
0.0
 10
-7.534925672743055
 20
2.281317816840278
 30
0.0
 10
-7.534939236111111
 20
2.158718532986111
 30
0.0
 10
-7.622395833333333
 20
2.0533447265625
 30
0.0
 10
-7.742865668402778
 20
2.03076171875
 30
0.0
 10
-7.742865668402778
 20
2.03076171875
 30
0.0
 10
-10.72322591145833
 20
1.471937391493056
 30
0.0
 10
-10.72322591145833
 20
1.471937391493056
 30
0.0
 10
-11.16347927517361
 20
1.389404296875
 30
0.0
 10
-11.49595811631944
 20
1.019924587673611
 30
0.0
 10
-11.53176540798611
 20
0.5734456380208333
 30
0.0
 10
-11.49595811631944
 20
0.1277533637152778
 30
0.0
 10
-11.16347927517361
 20
-0.2417263454861111
 30
0.0
 10
-10.72322591145833
 20
-0.3242730034722222
 30
0.0
 10
-10.72322591145833
 20
-0.3242730034722222
 30
0.0
 10
-7.742865668402778
 20
-0.883083767361111
 30
0.0
 10
-7.742865668402778
 20
-0.883083767361111
 30
0.0
 10
-7.622395833333333
 20
-0.9056803385416666
 30
0.0
 10
-7.534939236111111
 20
-1.011054144965278
 30
0.0
 10
-7.534925672743055
 20
-1.133639865451389
 30
0.0
 10
-7.534925672743055
 20
-1.133639865451389
 30
0.0
 10
-7.534925672743055
 20
-1.676161024305555
 30
0.0
 10
-7.534925672743055
 20
-1.676161024305555
 30
0.0
 10
-7.534925672743055
 20
-1.811292860243055
 30
0.0
 10
-7.424994574652778
 20
-1.921237521701389
 30
0.0
 10
-7.289849175347221
 20
-1.921237521701389
 30
0.0
 10
-7.289849175347221
 20
-1.921237521701389
 30
0.0
 10
-5.570963541666666
 20
-1.920423719618055
 30
0.0
 10
-5.570963541666666
 20
-1.920423719618055
 30
0.0
 10
-5.570963541666666
 20
-1.920383029513889
 30
0.0
 10
-5.570963541666666
 20
-1.920342339409722
 30
0.0
 10
-5.570963541666666
 20
-1.920301649305555
 30
0.0
 10
-5.570963541666666
 20
-1.888495551215278
 30
0.0
 10
-5.546847873263888
 20
-1.862508138020833
 30
0.0
 10
-5.5159912109375
 20
-1.858913845486111
 30
0.0
 10
-5.515462239583333
 20
-1.858669704861111
 30
0.0
 10
-5.514919704861111
 20
-1.858479817708333
 30
0.0
 10
-5.514309353298611
 20
-1.858425564236111
 30
0.0
 10
-5.514295789930555
 20
-1.858425564236111
 30
0.0
 10
-5.514295789930555
 20
-1.858425564236111
 30
0.0
 10
-5.514295789930555
 20
-1.858425564236111
 30
0.0
 10
-5.512478298611111
 20
-1.858289930555555
 30
0.0
 10
-5.510674370659722
 20
-1.858194986979167
 30
0.0
 10
-5.508856879340278
 20
-1.858194986979167
 30
0.0
 10
-5.507039388020833
 20
-1.858194986979167
 30
0.0
 10
-5.505235460069444
 20
-1.858289930555555
 30
0.0
 10
-5.50341796875
 20
-1.858425564236111
 30
0.0
 10
-5.50341796875
 20
-1.858425564236111
 30
0.0
 10
-5.50341796875
 20
-1.858425564236111
 30
0.0
 10
-5.50341796875
 20
-1.858425564236111
 30
0.0
 10
-5.502197265625
 20
-1.858534071180555
 30
0.0
 10
-5.501085069444444
 20
-1.858927408854167
 30
0.0
 10
-5.4998779296875
 20
-1.859103732638889
 30
0.0
 10
-5.497775607638888
 20
-1.859415690104167
 30
0.0
 10
-5.495713975694444
 20
-1.859781901041667
 30
0.0
 10
-5.493679470486111
 20
-1.860297309027778
 30
0.0
 10
-5.491712782118055
 20
-1.860785590277778
 30
0.0
 10
-5.489827473958333
 20
-1.861395941840278
 30
0.0
 10
-5.487942165798611
 20
-1.862074110243055
 30
0.0
 10
-5.486002604166666
 20
-1.862779405381944
 30
0.0
 10
-5.484103732638888
 20
-1.863525390625
 30
0.0
 10
-5.482259114583333
 20
-1.864407009548611
 30
0.0
 10
-5.480455186631944
 20
-1.865275065104167
 30
0.0
 10
-5.478732638888888
 20
-1.866224500868055
 30
0.0
 10
-5.477037217881944
 20
-1.867255316840278
 30
0.0
 10
-5.475301106770833
 20
-1.868299696180555
 30
0.0
 10
-5.4736328125
 20
-1.869384765625
 30
0.0
 10
-5.472005208333333
 20
-1.870591905381944
 30
0.0
 10
-5.470431857638888
 20
-1.871758355034722
 30
0.0
 10
-5.468953450520833
 20
-1.872992621527778
 30
0.0
 10
-5.467502170138888
 20
-1.874308268229167
 30
0.0
 10
-5.465983072916666
 20
-1.875678168402778
 30
0.0
 10
-5.464531792534722
 20
-1.877088758680555
 30
0.0
 10
-5.463161892361111
 20
-1.878594292534722
 30
0.0
 10
-5.461859809027778
 20
-1.8800048828125
 30
0.0
 10
-5.460679796006944
 20
-1.8814697265625
 30
0.0
 10
-5.459526909722222
 20
-1.882988823784722
 30
0.0
 10
-5.458265516493055
 20
-1.8846435546875
 30
0.0
 10
-5.457085503472222
 20
-1.886338975694444
 30
0.0
 10
-5.456000434027778
 20
-1.888115776909722
 30
0.0
 10
-5.455010308159722
 20
-1.889743381076389
 30
0.0
 10
-5.454128689236111
 20
-1.891411675347222
 30
0.0
 10
-5.453287760416666
 20
-1.893120659722222
 30
0.0
 10
-5.452365451388888
 20
-1.894992404513889
 30
0.0
 10
-5.451524522569444
 20
-1.896864149305555
 30
0.0
 10
-5.4508056640625
 20
-1.898817274305555
 30
0.0
 10
-5.450113932291666
 20
-1.900689019097222
 30
0.0
 10
-5.449544270833333
 20
-1.902587890625
 30
0.0
 10
-5.449028862847222
 20
-1.904527452256944
 30
0.0
 10
-5.448513454861111
 20
-1.906480577256944
 30
0.0
 10
-5.448079427083333
 20
-1.908447265625
 30
0.0
 10
-5.44775390625
 20
-1.910468207465278
 30
0.0
 10
-5.447591145833333
 20
-1.911404079861111
 30
0.0
 10
-5.447265625
 20
-1.912272135416667
 30
0.0
 10
-5.447157118055555
 20
-1.913221571180555
 30
0.0
 10
-5.447021484375
 20
-1.914388020833333
 30
0.0
 10
-5.447170681423611
 20
-1.915635850694444
 30
0.0
 10
-5.447102864583333
 20
-1.916829427083333
 30
0.0
 10
-5.447035047743055
 20
-1.917995876736111
 30
0.0
 10
-5.446750217013888
 20
-1.919108072916667
 30
0.0
 10
-5.446750217013888
 20
-1.920301649305555
 30
0.0
 10
-5.446750217013888
 20
-1.922132703993055
 30
0.0
 10
-5.446831597222222
 20
-1.9239501953125
 30
0.0
 10
-5.446994357638888
 20
-1.92578125
 30
0.0
 10
-5.449842664930555
 20
-1.958034939236111
 30
0.0
 10
-5.477023654513888
 20
-1.982408311631944
 30
0.0
 10
-5.508816189236111
 20
-1.982408311631944
 30
0.0
 10
-5.508870442708333
 20
-1.982408311631944
 30
0.0
 10
-5.508924696180555
 20
-1.982394748263889
 30
0.0
 10
-5.508978949652778
 20
-1.982394748263889
 30
0.0
 10
-5.508978949652778
 20
-1.982394748263889
 30
0.0
 10
-5.508978949652778
 20
-2.039265950520833
 30
0.0
 10
-5.508978949652778
 20
-2.039265950520833
 30
0.0
 10
-5.508978949652778
 20
-2.039265950520833
 30
0.0
 10
-5.508978949652778
 20
-3.972344292534722
 30
0.0
 10
-5.508978949652778
 20
-3.972344292534722
 30
0.0
 10
-5.508978949652778
 20
-3.972344292534722
 30
0.0
 10
-5.263888888888888
 20
-3.972344292534722
 30
0.0
 10
-5.263888888888888
 20
-3.972344292534722
 30
0.0
 10
-5.263888888888888
 20
-3.972344292534722
 30
0.0
 10
12.48611111111111
 20
-3.972344292534722
 30
0.0
 10
12.48611111111111
 20
-3.972344292534722
 30
0.0
 10
12.48611111111111
 20
-3.972344292534722
 30
0.0
 10
12.73118760850694
 20
-3.972344292534722
 30
0.0
 10
12.73118760850694
 20
-3.972344292534722
 30
0.0
 10
12.73118760850694
 20
-3.972344292534722
 30
0.0
 10
12.73118760850694
 20
-2.039265950520833
 30
0.0
 10
12.73118760850694
 20
-2.039265950520833
 30
0.0
 10
12.73118760850694
 20
-2.039265950520833
 30
0.0
 10
12.73118760850694
 20
-1.982394748263889
 30
0.0
 10
12.73118760850694
 20
-1.982394748263889
 30
0.0
 10
12.73113335503472
 20
-1.982394748263889
 30
0.0
 10
12.7310791015625
 20
-1.982408311631944
 30
0.0
 10
12.73102484809028
 20
-1.982408311631944
 30
0.0
 10
12.71461317274306
 20
-1.982408311631944
 30
0.0
 10
12.69886610243056
 20
-1.9759521484375
 30
0.0
 10
12.68714735243056
 20
-1.9642333984375
 30
0.0
 10
12.6766357421875
 20
-1.953708224826389
 30
0.0
 10
12.67097981770833
 20
-1.9403076171875
 30
0.0
 10
12.66959635416667
 20
-1.926554361979167
 30
0.0
 10
12.66951497395833
 20
-1.92626953125
 30
0.0
 10
12.66924370659722
 20
-1.926093207465278
 30
0.0
 10
12.66921657986111
 20
-1.92578125
 30
0.0
 10
12.66905381944444
 20
-1.9239501953125
 30
0.0
 10
12.66895887586806
 20
-1.922132703993055
 30
0.0
 10
12.66895887586806
 20
-1.920301649305555
 30
0.0
 10
12.66895887586806
 20
-1.91943359375
 30
0.0
 10
12.66917588975694
 20
-1.918619791666667
 30
0.0
 10
12.66921657986111
 20
-1.917751736111111
 30
0.0
 10
12.66925726996528
 20
-1.916775173611111
 30
0.0
 10
12.66913519965278
 20
-1.915798611111111
 30
0.0
 10
12.66921657986111
 20
-1.914835611979167
 30
0.0
 10
12.6693115234375
 20
-1.913723415798611
 30
0.0
 10
12.669677734375
 20
-1.912706163194444
 30
0.0
 10
12.66982693142361
 20
-1.91162109375
 30
0.0
 10
12.66998969184028
 20
-1.9105224609375
 30
0.0
 10
12.66996256510417
 20
-1.909410264756944
 30
0.0
 10
12.670166015625
 20
-1.908311631944444
 30
0.0
 10
12.67039659288194
 20
-1.907185872395833
 30
0.0
 10
12.67080349392361
 20
-1.9061279296875
 30
0.0
 10
12.67108832465278
 20
-1.905015733506944
 30
0.0
 10
12.67154947916667
 20
-1.903184678819444
 30
0.0
 10
12.67210557725694
 20
-1.901421440972222
 30
0.0
 10
12.6727294921875
 20
-1.899671766493055
 30
0.0
 10
12.67308213975694
 20
-1.898654513888889
 30
0.0
 10
12.67328559027778
 20
-1.897610134548611
 30
0.0
 10
12.6737060546875
 20
-1.8966064453125
 30
0.0
 10
12.67411295572917
 20
-1.895616319444444
 30
0.0
 10
12.67469618055556
 20
-1.894721137152778
 30
0.0
 10
12.67515733506944
 20
-1.893744574652778
 30
0.0
 10
12.67598470052083
 20
-1.891994900173611
 30
0.0
 10
12.67689344618056
 20
-1.890326605902778
 30
0.0
 10
12.67787000868056
 20
-1.888671875
 30
0.0
 10
12.67843967013889
 20
-1.887722439236111
 30
0.0
 10
12.67884657118056
 20
-1.886732313368055
 30
0.0
 10
12.67945692274306
 20
-1.885810004340278
 30
0.0
 10
12.67998589409722
 20
-1.885023328993055
 30
0.0
 10
12.6806640625
 20
-1.884358723958333
 30
0.0
 10
12.68123372395833
 20
-1.883599175347222
 30
0.0
 10
12.68246799045139
 20
-1.881917317708333
 30
0.0
 10
12.68379720052083
 20
-1.880330403645833
 30
0.0
 10
12.68519422743056
 20
-1.8787841796875
 30
0.0
 10
12.68588595920139
 20
-1.878024631076389
 30
0.0
 10
12.6864013671875
 20
-1.877156575520833
 30
0.0
 10
12.6871337890625
 20
-1.876410590277778
 30
0.0
 10
12.68714735243056
 20
-1.876397026909722
 30
0.0
 10
12.6871337890625
 20
-1.876397026909722
 30
0.0
 10
12.68714735243056
 20
-1.876383463541667
 30
0.0
 10
12.68767632378472
 20
-1.8758544921875
 30
0.0
 10
12.68831380208333
 20
-1.875515407986111
 30
0.0
 10
12.68885633680556
 20
-1.875013563368055
 30
0.0
 10
12.68895128038194
 20
-1.874918619791667
 30
0.0
 10
12.68905978732639
 20
-1.874850802951389
 30
0.0
 10
12.68915473090278
 20
-1.874769422743055
 30
0.0
 10
12.69068739149306
 20
-1.873358832465278
 30
0.0
 10
12.69228786892361
 20
-1.872056749131944
 30
0.0
 10
12.69395616319444
 20
-1.870808919270833
 30
0.0
 10
12.69498697916667
 20
-1.870022243923611
 30
0.0
 10
12.69596354166667
 20
-1.869167751736111
 30
0.0
 10
12.69704861111111
 20
-1.868448893229167
 30
0.0
 10
12.69782172309028
 20
-1.867933485243055
 30
0.0
 10
12.69862196180556
 20
-1.867526584201389
 30
0.0
 10
12.69942220052083
 20
-1.867051866319444
 30
0.0
 10
12.70091417100694
 20
-1.866156684027778
 30
0.0
 10
12.70246039496528
 20
-1.865410698784722
 30
0.0
 10
12.70403374565972
 20
-1.864651150173611
 30
0.0
 10
12.70548502604167
 20
-1.863932291666667
 30
0.0
 10
12.7069091796875
 20
-1.863213433159722
 30
0.0
 10
12.70842827690972
 20
-1.862616644965278
 30
0.0
 10
12.70926920572917
 20
-1.862277560763889
 30
0.0
 10
12.71009657118056
 20
-1.8619384765625
 30
0.0
 10
12.71096462673611
 20
-1.861640082465278
 30
0.0
 10
12.71237521701389
 20
-1.861151801215278
 30
0.0
 10
12.71384006076389
 20
-1.860853407118055
 30
0.0
 10
12.71529134114583
 20
-1.8604736328125
 30
0.0
 10
12.71712239583333
 20
-1.859998914930555
 30
0.0
 10
12.71893988715278
 20
-1.859551323784722
 30
0.0
 10
12.7208251953125
 20
-1.859225802951389
 30
0.0
 10
12.72170681423611
 20
-1.859076605902778
 30
0.0
 10
12.72256130642361
 20
-1.858818901909722
 30
0.0
 10
12.72345648871528
 20
-1.858710394965278
 30
0.0
 10
12.72477213541667
 20
-1.858547634548611
 30
0.0
 10
12.72614203559028
 20
-1.858629014756944
 30
0.0
 10
12.72748480902778
 20
-1.858561197916667
 30
0.0
 10
12.72869194878472
 20
-1.858479817708333
 30
0.0
 10
12.72984483506944
 20
-1.858194986979167
 30
0.0
 10
12.73106553819444
 20
-1.858194986979167
 30
0.0
 10
12.73288302951389
 20
-1.858194986979167
 30
0.0
 10
12.73468695746528
 20
-1.858289930555555
 30
0.0
 10
12.73650444878472
 20
-1.858425564236111
 30
0.0
 10
12.77045355902778
 20
-1.8614501953125
 30
0.0
 10
12.79558648003472
 20
-1.891316731770833
 30
0.0
 10
12.79291449652778
 20
-1.9251708984375
 30
0.0
 10
12.79292805989583
 20
-1.925238715277778
 30
0.0
 10
12.79295518663194
 20
-1.92529296875
 30
0.0
 10
12.79295518663194
 20
-1.925347222222222
 30
0.0
 10
12.79295518663194
 20
-1.925347222222222
 30
0.0
 10
12.79295518663194
 20
-1.940239800347222
 30
0.0
 10
12.79295518663194
 20
-1.940239800347222
 30
0.0
 10
12.79295518663194
 20
-1.940239800347222
 30
0.0
 10
14.53803168402778
 20
-1.940239800347222
 30
0.0
 10
14.53803168402778
 20
-1.940239800347222
 30
0.0
 10
14.67316351996528
 20
-1.940239800347222
 30
0.0
 10
14.78310818142361
 20
-1.830295138888889
 30
0.0
 10
14.78310818142361
 20
-1.695163302951389
 30
0.0
 10
14.78310818142361
 20
-1.695163302951389
 30
0.0
 10
14.78310818142361
 20
-1.152642144097222
 30
0.0
 10
14.78310818142361
 20
-1.152642144097222
 30
0.0
 10
14.78310818142361
 20
-1.030042860243056
 30
0.0
 10
14.87056477864583
 20
-0.9246690538194444
 30
0.0
 10
14.99106174045139
 20
-0.9020860460069444
 30
0.0
 10
14.99106174045139
 20
-0.9020860460069444
 30
0.0
 10
17.97142198350694
 20
-0.34326171875
 30
0.0
 10
17.97142198350694
 20
-0.34326171875
 30
0.0
 10
18.41166178385416
 20
-0.2607286241319444
 30
0.0
 10
18.74412706163194
 20
0.1087510850694444
 30
0.0
 10
18.77992078993055
 20
0.5552300347222222
 30
0.0
 10
18.74412706163194
 20
1.000922309027778
 30
0.0
 10
18.41166178385416
 20
1.370402018229167
 30
0.0
 10
17.97142198350694
 20
1.452935112847222
 30
0.0
 10
17.97142198350694
 20
1.452935112847222
 30
0.0
 10
14.99106174045139
 20
2.011759440104167
 30
0.0
 10
14.99106174045139
 20
2.011759440104167
 30
0.0
 10
14.87056477864583
 20
2.034342447916667
 30
0.0
 10
14.78310818142361
 20
2.139716254340278
 30
0.0
 10
14.78310818142361
 20
2.262315538194444
 30
0.0
 10
14.78310818142361
 20
2.262315538194444
 30
0.0
 10
14.78310818142361
 20
8.933539496527777
 30
0.0
 10
14.78310818142361
 20
8.933539496527777
 30
0.0
 10
14.78310818142361
 20
8.933539496527777
 30
0.0
 10
14.78310818142361
 20
9.126030815972221
 30
0.0
 10
14.78310818142361
 20
9.126030815972221
 30
0.0
 10
14.78310818142361
 20
9.12612575954861
 30
0.0
 10
14.78314887152778
 20
9.126193576388888
 30
0.0
 10
14.78316243489583
 20
9.126288519965277
 30
0.0
 10
14.78317599826389
 20
9.126627604166666
 30
0.0
 10
14.78327094184028
 20
9.126925998263888
 30
0.0
 10
14.78335232204861
 20
9.12722439236111
 30
0.0
 10
14.78343370225694
 20
9.127549913194445
 30
0.0
 10
14.78348795572917
 20
9.127848307291666
 30
0.0
 10
14.78362358940972
 20
9.128146701388888
 30
0.0
 10
14.78374565972222
 20
9.128404405381945
 30
0.0
 10
14.783935546875
 20
9.128634982638888
 30
0.0
 10
14.78411187065972
 20
9.128865559895832
 30
0.0
 10
14.78431532118056
 20
9.129136827256945
 30
0.0
 10
14.78447808159722
 20
9.12942165798611
 30
0.0
 10
14.78472222222222
 20
9.129638671875
 30
0.0
 10
14.78493923611111
 20
9.129828559027777
 30
0.0
 10
14.78519694010417
 20
9.129964192708332
 30
0.0
 10
14.78544108072917
 20
9.130113389756945
 30
0.0
 10
14.78573947482639
 20
9.130316840277777
 30
0.0
 10
14.78602430555556
 20
9.130506727430555
 30
0.0
 10
14.78636338975694
 20
9.130615234375
 30
0.0
 10
14.78643120659722
 20
9.13064236111111
 30
0.0
 10
14.78648546006944
 20
9.130710177951388
 30
0.0
 10
14.78656684027778
 20
9.1307373046875
 30
0.0
 10
14.78656684027778
 20
9.1307373046875
 30
0.0
 10
14.96199544270833
 20
9.185560438368055
 30
0.0
 10
14.96199544270833
 20
9.185560438368055
 30
0.0
 10
14.96199544270833
 20
9.185560438368055
 30
0.0
 10
18.0848388671875
 20
10.16145833333333
 30
0.0
 10
18.0848388671875
 20
10.16145833333333
 30
0.0
 10
18.48838975694444
 20
10.28755696614583
 30
0.0
 10
18.76877170138889
 20
10.65616861979167
 30
0.0
 10
18.78256564670139
 20
11.07872178819444
 30
0.0
 10
18.7672119140625
 20
11.54871961805556
 30
0.0
 10
18.43372938368055
 20
11.93751356336806
 30
0.0
 10
17.97153049045139
 20
12.02422417534722
 30
0.0
  0
SPLINE
  5
3D
330
1F
100
AcDbEntity
  8
Layer 1
370
     0
100
AcDbSpline
210
0.0
220
0.0
230
1.0
 70
    11
 71
     3
 72
    17
 73
    13
 74
     0
 42
0.0000000001
 43
0.0000000001
 40
0.0
 40
0.0
 40
0.0
 40
0.0
 40
1.0
 40
1.0
 40
1.0
 40
2.0
 40
2.0
 40
2.0
 40
3.0
 40
3.0
 40
3.0
 40
4.0
 40
4.0
 40
4.0
 40
4.0
 10
-10.81582302517361
 20
10.85885959201389
 30
0.0
 10
-10.97361924913194
 20
10.85885959201389
 30
0.0
 10
-11.10199652777778
 20
10.98725043402778
 30
0.0
 10
-11.10199652777778
 20
11.14504665798611
 30
0.0
 10
-11.10199652777778
 20
11.30284288194444
 30
0.0
 10
-10.97361924913194
 20
11.43120659722222
 30
0.0
 10
-10.81582302517361
 20
11.43120659722222
 30
0.0
 10
-10.65802680121528
 20
11.43120659722222
 30
0.0
 10
-10.52964952256944
 20
11.30284288194444
 30
0.0
 10
-10.52964952256944
 20
11.14504665798611
 30
0.0
 10
-10.52964952256944
 20
10.98725043402778
 30
0.0
 10
-10.65802680121528
 20
10.85885959201389
 30
0.0
 10
-10.81582302517361
 20
10.85885959201389
 30
0.0
  0
SPLINE
  5
3E
330
1F
100
AcDbEntity
  8
Layer 1
370
     0
100
AcDbSpline
210
0.0
220
0.0
230
1.0
 70
    11
 71
     3
 72
    26
 73
    22
 74
     0
 42
0.0000000001
 43
0.0000000001
 40
0.0
 40
0.0
 40
0.0
 40
0.0
 40
1.0
 40
1.0
 40
1.0
 40
2.0
 40
2.0
 40
2.0
 40
3.0
 40
3.0
 40
3.0
 40
4.0
 40
4.0
 40
4.0
 40
5.0
 40
5.0
 40
5.0
 40
6.0
 40
6.0
 40
6.0
 40
7.0
 40
7.0
 40
7.0
 40
7.0
 10
-7.557400173611111
 20
12.64207628038194
 30
0.0
 10
-7.562310112847221
 20
12.64084201388889
 30
0.0
 10
-7.5672607421875
 20
12.63975694444444
 30
0.0
 10
-7.572238498263888
 20
12.63882107204861
 30
0.0
 10
-7.572550455729166
 20
12.63875325520833
 30
0.0
 10
-7.572862413194444
 20
12.63872612847222
 30
0.0
 10
-7.573160807291666
 20
12.63872612847222
 30
0.0
 10
-7.575480143229166
 20
12.63872612847222
 30
0.0
 10
-7.577541775173611
 20
12.640380859375
 30
0.0
 10
-7.577989366319444
 20
12.64274088541667
 30
0.0
 10
-7.5784912109375
 20
12.64541286892361
 30
0.0
 10
-7.576741536458333
 20
12.64798990885417
 30
0.0
 10
-7.574069552951388
 20
12.64849175347222
 30
0.0
 10
-7.569281684027778
 20
12.64938693576389
 30
0.0
 10
-7.564507378472221
 20
12.65044487847222
 30
0.0
 10
-7.559787326388888
 20
12.65162489149306
 30
0.0
 10
-7.557196723090278
 20
12.65228949652778
 30
0.0
 10
-7.554497612847221
 20
12.65068901909722
 30
0.0
 10
-7.553819444444444
 20
12.64804416232639
 30
0.0
 10
-7.553168402777778
 20
12.64539930555556
 30
0.0
 10
-7.554768880208333
 20
12.64274088541667
 30
0.0
 10
-7.557400173611111
 20
12.64207628038194
 30
0.0
  0
SPLINE
  5
3F
330
1F
100
AcDbEntity
  8
Layer 1
370
     0
100
AcDbSpline
210
0.0
220
0.0
230
1.0
 70
    11
 71
     3
 72
    17
 73
    13
 74
     0
 42
0.0000000001
 43
0.0000000001
 40
0.0
 40
0.0
 40
0.0
 40
0.0
 40
1.0
 40
1.0
 40
1.0
 40
2.0
 40
2.0
 40
2.0
 40
3.0
 40
3.0
 40
3.0
 40
4.0
 40
4.0
 40
4.0
 40
4.0
 10
-10.78984917534722
 20
0.2876654730902777
 30
0.0
 10
-10.94764539930556
 20
0.2876654730902777
 30
0.0
 10
-11.07602267795139
 20
0.4160427517361111
 30
0.0
 10
-11.07602267795139
 20
0.5738389756944444
 30
0.0
 10
-11.07602267795139
 20
0.7316351996527778
 30
0.0
 10
-10.94764539930556
 20
0.860012478298611
 30
0.0
 10
-10.78984917534722
 20
0.860012478298611
 30
0.0
 10
-10.63205295138889
 20
0.860012478298611
 30
0.0
 10
-10.50367567274306
 20
0.7316351996527778
 30
0.0
 10
-10.50367567274306
 20
0.5738389756944444
 30
0.0
 10
-10.50367567274306
 20
0.4160427517361111
 30
0.0
 10
-10.63205295138889
 20
0.2876654730902777
 30
0.0
 10
-10.78984917534722
 20
0.2876654730902777
 30
0.0
  0
SPLINE
  5
40
330
1F
100
AcDbEntity
  8
Layer 1
370
     0
100
AcDbSpline
210
0.0
220
0.0
230
1.0
 70
    11
 71
     3
 72
    23
 73
    19
 74
     0
 42
0.0000000001
 43
0.0000000001
 40
0.0
 40
0.0
 40
0.0
 40
0.0
 40
1.0
 40
1.0
 40
1.0
 40
2.0
 40
2.0
 40
2.0
 40
3.0
 40
3.0
 40
3.0
 40
4.0
 40
4.0
 40
4.0
 40
5.0
 40
5.0
 40
5.0
 40
6.0
 40
6.0
 40
6.0
 40
6.0
 10
-5.802842881944444
 20
9.07326931423611
 30
0.0
 10
-5.802842881944444
 20
9.07326931423611
 30
0.0
 10
-7.302842881944444
 20
9.07326931423611
 30
0.0
 10
-7.302842881944444
 20
9.07326931423611
 30
0.0
 10
-7.340020073784721
 20
9.07326931423611
 30
0.0
 10
-7.370266384548611
 20
9.103515625
 30
0.0
 10
-7.370266384548611
 20
9.140679253472221
 30
0.0
 10
-7.370266384548611
 20
9.177870008680555
 30
0.0
 10
-7.340020073784721
 20
9.208116319444445
 30
0.0
 10
-7.302842881944444
 20
9.208116319444445
 30
0.0
 10
-7.302842881944444
 20
9.208116319444445
 30
0.0
 10
-5.802842881944444
 20
9.208116319444445
 30
0.0
 10
-5.802842881944444
 20
9.208116319444445
 30
0.0
 10
-5.765665690104166
 20
9.208116319444445
 30
0.0
 10
-5.735419379340278
 20
9.177870008680555
 30
0.0
 10
-5.735419379340278
 20
9.140679253472221
 30
0.0
 10
-5.735419379340278
 20
9.103515625
 30
0.0
 10
-5.765665690104166
 20
9.07326931423611
 30
0.0
 10
-5.802842881944444
 20
9.07326931423611
 30
0.0
  0
SPLINE
  5
41
330
1F
100
AcDbEntity
  8
Layer 1
370
     0
100
AcDbSpline
210
0.0
220
0.0
230
1.0
 70
    11
 71
     3
 72
    23
 73
    19
 74
     0
 42
0.0000000001
 43
0.0000000001
 40
0.0
 40
0.0
 40
0.0
 40
0.0
 40
1.0
 40
1.0
 40
1.0
 40
2.0
 40
2.0
 40
2.0
 40
3.0
 40
3.0
 40
3.0
 40
4.0
 40
4.0
 40
4.0
 40
5.0
 40
5.0
 40
5.0
 40
6.0
 40
6.0
 40
6.0
 40
6.0
 10
-5.472439236111111
 20
-1.598036024305555
 30
0.0
 10
-5.472439236111111
 20
-1.635213216145833
 30
0.0
 10
-5.502685546875
 20
-1.665459526909722
 30
0.0
 10
-5.539849175347222
 20
-1.665459526909722
 30
0.0
 10
-5.577039930555555
 20
-1.665459526909722
 30
0.0
 10
-5.607286241319444
 20
-1.635213216145833
 30
0.0
 10
-5.607286241319444
 20
-1.598036024305555
 30
0.0
 10
-5.607286241319444
 20
-1.598036024305555
 30
0.0
 10
-5.607286241319444
 20
3.276963975694444
 30
0.0
 10
-5.607286241319444
 20
3.276963975694444
 30
0.0
 10
-5.607286241319444
 20
3.314141167534722
 30
0.0
 10
-5.577039930555555
 20
3.344387478298611
 30
0.0
 10
-5.539849175347222
 20
3.344387478298611
 30
0.0
 10
-5.502685546875
 20
3.344387478298611
 30
0.0
 10
-5.472439236111111
 20
3.314141167534722
 30
0.0
 10
-5.472439236111111
 20
3.276963975694444
 30
0.0
 10
-5.472439236111111
 20
3.276963975694444
 30
0.0
 10
-5.472439236111111
 20
-1.598036024305555
 30
0.0
 10
-5.472439236111111
 20
-1.598036024305555
 30
0.0
  0
SPLINE
  5
42
330
1F
100
AcDbEntity
  8
Layer 1
370
     0
100
AcDbSpline
210
0.0
220
0.0
230
1.0
 70
    11
 71
     3
 72
    23
 73
    19
 74
     0
 42
0.0000000001
 43
0.0000000001
 40
0.0
 40
0.0
 40
0.0
 40
0.0
 40
1.0
 40
1.0
 40
1.0
 40
2.0
 40
2.0
 40
2.0
 40
3.0
 40
3.0
 40
3.0
 40
4.0
 40
4.0
 40
4.0
 40
5.0
 40
5.0
 40
5.0
 40
6.0
 40
6.0
 40
6.0
 40
6.0
 10
-5.472439236111111
 20
3.933213975694444
 30
0.0
 10
-5.472439236111111
 20
3.896036783854167
 30
0.0
 10
-5.502685546875
 20
3.865790473090278
 30
0.0
 10
-5.539849175347222
 20
3.865790473090278
 30
0.0
 10
-5.577039930555555
 20
3.865790473090278
 30
0.0
 10
-5.607286241319444
 20
3.896036783854167
 30
0.0
 10
-5.607286241319444
 20
3.933213975694444
 30
0.0
 10
-5.607286241319444
 20
3.933213975694444
 30
0.0
 10
-5.607286241319444
 20
8.808213975694445
 30
0.0
 10
-5.607286241319444
 20
8.808213975694445
 30
0.0
 10
-5.607286241319444
 20
8.845377604166666
 30
0.0
 10
-5.577039930555555
 20
8.875623914930555
 30
0.0
 10
-5.539849175347222
 20
8.875623914930555
 30
0.0
 10
-5.502685546875
 20
8.875623914930555
 30
0.0
 10
-5.472439236111111
 20
8.845377604166666
 30
0.0
 10
-5.472439236111111
 20
8.808213975694445
 30
0.0
 10
-5.472439236111111
 20
8.808213975694445
 30
0.0
 10
-5.472439236111111
 20
3.933213975694444
 30
0.0
 10
-5.472439236111111
 20
3.933213975694444
 30
0.0
  0
SPLINE
  5
43
330
1F
100
AcDbEntity
  8
Layer 1
370
     0
100
AcDbSpline
210
0.0
220
0.0
230
1.0
 70
    11
 71
     3
 72
    23
 73
    19
 74
     0
 42
0.0000000001
 43
0.0000000001
 40
0.0
 40
0.0
 40
0.0
 40
0.0
 40
1.0
 40
1.0
 40
1.0
 40
2.0
 40
2.0
 40
2.0
 40
3.0
 40
3.0
 40
3.0
 40
4.0
 40
4.0
 40
4.0
 40
5.0
 40
5.0
 40
5.0
 40
6.0
 40
6.0
 40
6.0
 40
6.0
 10
3.923611111111111
 20
13.23000759548611
 30
0.0
 10
3.923611111111111
 20
13.23000759548611
 30
0.0
 10
11.79861111111111
 20
13.23000759548611
 30
0.0
 10
11.79861111111111
 20
13.23000759548611
 30
0.0
 10
11.83578830295139
 20
13.23000759548611
 30
0.0
 10
11.86603461371528
 20
13.19976128472222
 30
0.0
 10
11.86603461371528
 20
13.16259765625
 30
0.0
 10
11.86603461371528
 20
13.12540690104167
 30
0.0
 10
11.83578830295139
 20
13.09516059027778
 30
0.0
 10
11.79861111111111
 20
13.09516059027778
 30
0.0
 10
11.79861111111111
 20
13.09516059027778
 30
0.0
 10
3.923611111111111
 20
13.09516059027778
 30
0.0
 10
3.923611111111111
 20
13.09516059027778
 30
0.0
 10
3.886420355902778
 20
13.09516059027778
 30
0.0
 10
3.856174045138889
 20
13.12540690104167
 30
0.0
 10
3.856174045138889
 20
13.16259765625
 30
0.0
 10
3.856174045138889
 20
13.19976128472222
 30
0.0
 10
3.886420355902778
 20
13.23000759548611
 30
0.0
 10
3.923611111111111
 20
13.23000759548611
 30
0.0
  0
SPLINE
  5
44
330
1F
100
AcDbEntity
  8
Layer 1
370
     0
100
AcDbSpline
210
0.0
220
0.0
230
1.0
 70
    11
 71
     3
 72
    17
 73
    13
 74
     0
 42
0.0000000001
 43
0.0000000001
 40
0.0
 40
0.0
 40
0.0
 40
0.0
 40
1.0
 40
1.0
 40
1.0
 40
2.0
 40
2.0
 40
2.0
 40
3.0
 40
3.0
 40
3.0
 40
4.0
 40
4.0
 40
4.0
 40
4.0
 10
11.86903211805556
 20
12.61764865451389
 30
0.0
 10
11.86903211805556
 20
12.47709147135417
 30
0.0
 10
11.75467936197917
 20
12.36273871527778
 30
0.0
 10
11.61410861545139
 20
12.36273871527778
 30
0.0
 10
11.47353786892361
 20
12.36273871527778
 30
0.0
 10
11.35918511284722
 20
12.47709147135417
 30
0.0
 10
11.35918511284722
 20
12.61764865451389
 30
0.0
 10
11.35918511284722
 20
12.75821940104167
 30
0.0
 10
11.47353786892361
 20
12.87258572048611
 30
0.0
 10
11.61410861545139
 20
12.87258572048611
 30
0.0
 10
11.75467936197917
 20
12.87258572048611
 30
0.0
 10
11.86903211805556
 20
12.75821940104167
 30
0.0
 10
11.86903211805556
 20
12.61764865451389
 30
0.0
  0
SPLINE
  5
45
330
1F
100
AcDbEntity
  8
Layer 1
370
     0
100
AcDbSpline
210
0.0
220
0.0
230
1.0
 70
    11
 71
     3
 72
    56
 73
    52
 74
     0
 42
0.0000000001
 43
0.0000000001
 40
0.0
 40
0.0
 40
0.0
 40
0.0
 40
1.0
 40
1.0
 40
1.0
 40
2.0
 40
2.0
 40
2.0
 40
3.0
 40
3.0
 40
3.0
 40
4.0
 40
4.0
 40
4.0
 40
5.0
 40
5.0
 40
5.0
 40
6.0
 40
6.0
 40
6.0
 40
7.0
 40
7.0
 40
7.0
 40
8.0
 40
8.0
 40
8.0
 40
9.0
 40
9.0
 40
9.0
 40
10.0
 40
10.0
 40
10.0
 40
11.0
 40
11.0
 40
11.0
 40
12.0
 40
12.0
 40
12.0
 40
13.0
 40
13.0
 40
13.0
 40
14.0
 40
14.0
 40
14.0
 40
15.0
 40
15.0
 40
15.0
 40
16.0
 40
16.0
 40
16.0
 40
17.0
 40
17.0
 40
17.0
 40
17.0
 10
-3.013888888888889
 20
0.0697292751736111
 30
0.0
 10
-3.292317708333333
 20
0.0697292751736111
 30
0.0
 10
-3.518825954861111
 20
0.2962375217013889
 30
0.0
 10
-3.518825954861111
 20
0.5746527777777778
 30
0.0
 10
-3.518825954861111
 20
0.5746527777777778
 30
0.0
 10
-3.518825954861111
 20
0.8406575520833333
 30
0.0
 10
-3.518825954861111
 20
0.8406575520833333
 30
0.0
 10
-3.518825954861111
 20
0.8406575520833333
 30
0.0
 10
-3.518825954861111
 20
9.137654622395832
 30
0.0
 10
-3.518825954861111
 20
9.137654622395832
 30
0.0
 10
-3.518825954861111
 20
9.137790256076388
 30
0.0
 10
-3.518744574652778
 20
9.137912326388888
 30
0.0
 10
-3.518744574652778
 20
9.138047960069445
 30
0.0
 10
-3.518731011284722
 20
9.138170030381945
 30
0.0
 10
-3.518771701388889
 20
9.138292100694445
 30
0.0
 10
-3.518758138020833
 20
9.138414171006945
 30
0.0
 10
-3.518758138020833
 20
9.138414171006945
 30
0.0
 10
-3.2706298828125
 20
10.7332763671875
 30
0.0
 10
-3.2706298828125
 20
10.7332763671875
 30
0.0
 10
-3.232109917534722
 20
10.98087565104167
 30
0.0
 10
-3.022284613715278
 20
11.16059027777778
 30
0.0
 10
-2.771714952256944
 20
11.16059027777778
 30
0.0
 10
-2.771714952256944
 20
11.16059027777778
 30
0.0
 10
-0.6388888888888888
 20
11.16059027777778
 30
0.0
 10
-0.6388888888888888
 20
11.16059027777778
 30
0.0
 10
-0.6388888888888888
 20
11.16059027777778
 30
0.0
 10
9.99392361111111
 20
11.16059027777778
 30
0.0
 10
9.99392361111111
 20
11.16059027777778
 30
0.0
 10
10.2445068359375
 20
11.16059027777778
 30
0.0
 10
10.45433213975694
 20
10.98087565104167
 30
0.0
 10
10.49285210503472
 20
10.7332763671875
 30
0.0
 10
10.49285210503472
 20
10.7332763671875
 30
0.0
 10
10.49285210503472
 20
10.73326280381944
 30
0.0
 10
10.49285210503472
 20
10.73326280381944
 30
0.0
 10
10.49285210503472
 20
10.73326280381944
 30
0.0
 10
10.49285210503472
 20
10.73326280381944
 30
0.0
 10
10.49285210503472
 20
10.73326280381944
 30
0.0
 10
10.49285210503472
 20
10.73326280381944
 30
0.0
 10
10.74098036024306
 20
9.138414171006945
 30
0.0
 10
10.74098036024306
 20
9.138414171006945
 30
0.0
 10
10.74098036024306
 20
9.138414171006945
 30
0.0
 10
10.74103461371528
 20
0.8406575520833333
 30
0.0
 10
10.74103461371528
 20
0.8406575520833333
 30
0.0
 10
10.74103461371528
 20
0.8406575520833333
 30
0.0
 10
10.74103461371528
 20
0.5746527777777778
 30
0.0
 10
10.74103461371528
 20
0.5746527777777778
 30
0.0
 10
10.74103461371528
 20
0.2962375217013889
 30
0.0
 10
10.5145263671875
 20
0.0697292751736111
 30
0.0
 10
10.23611111111111
 20
0.0697292751736111
 30
0.0
 10
10.23611111111111
 20
0.0697292751736111
 30
0.0
 10
-3.013888888888889
 20
0.0697292751736111
 30
0.0
 10
-3.013888888888889
 20
0.0697292751736111
 30
0.0
  0
SPLINE
  5
46
330
1F
100
AcDbEntity
  8
Layer 1
370
     0
100
AcDbSpline
210
0.0
220
0.0
230
1.0
 70
    11
 71
     3
 72
    17
 73
    13
 74
     0
 42
0.0000000001
 43
0.0000000001
 40
0.0
 40
0.0
 40
0.0
 40
0.0
 40
1.0
 40
1.0
 40
1.0
 40
2.0
 40
2.0
 40
2.0
 40
3.0
 40
3.0
 40
3.0
 40
4.0
 40
4.0
 40
4.0
 40
4.0
 10
8.991034613715277
 20
-1.425347222222222
 30
0.0
 10
8.991034613715277
 20
-1.56591796875
 30
0.0
 10
8.87668185763889
 20
-1.680270724826389
 30
0.0
 10
8.73611111111111
 20
-1.680270724826389
 30
0.0
 10
8.595540364583332
 20
-1.680270724826389
 30
0.0
 10
8.481187608506945
 20
-1.56591796875
 30
0.0
 10
8.481187608506945
 20
-1.425347222222222
 30
0.0
 10
8.481187608506945
 20
-1.284776475694444
 30
0.0
 10
8.595540364583332
 20
-1.170423719618056
 30
0.0
 10
8.73611111111111
 20
-1.170423719618056
 30
0.0
 10
8.87668185763889
 20
-1.170423719618056
 30
0.0
 10
8.991034613715277
 20
-1.284776475694444
 30
0.0
 10
8.991034613715277
 20
-1.425347222222222
 30
0.0
  0
SPLINE
  5
47
330
1F
100
AcDbEntity
  8
Layer 1
370
     0
100
AcDbSpline
210
0.0
220
0.0
230
1.0
 70
    11
 71
     3
 72
    17
 73
    13
 74
     0
 42
0.0000000001
 43
0.0000000001
 40
0.0
 40
0.0
 40
0.0
 40
0.0
 40
1.0
 40
1.0
 40
1.0
 40
2.0
 40
2.0
 40
2.0
 40
3.0
 40
3.0
 40
3.0
 40
4.0
 40
4.0
 40
4.0
 40
4.0
 10
-1.258978949652778
 20
-1.425347222222222
 30
0.0
 10
-1.258978949652778
 20
-1.56591796875
 30
0.0
 10
-1.373331705729167
 20
-1.680270724826389
 30
0.0
 10
-1.513888888888889
 20
-1.680270724826389
 30
0.0
 10
-1.654459635416667
 20
-1.680270724826389
 30
0.0
 10
-1.768825954861111
 20
-1.56591796875
 30
0.0
 10
-1.768825954861111
 20
-1.425347222222222
 30
0.0
 10
-1.768825954861111
 20
-1.284776475694444
 30
0.0
 10
-1.654459635416667
 20
-1.170423719618056
 30
0.0
 10
-1.513888888888889
 20
-1.170423719618056
 30
0.0
 10
-1.373331705729167
 20
-1.170423719618056
 30
0.0
 10
-1.258978949652778
 20
-1.284776475694444
 30
0.0
 10
-1.258978949652778
 20
-1.425347222222222
 30
0.0
  0
SPLINE
  5
48
330
1F
100
AcDbEntity
  8
Layer 1
370
     0
100
AcDbSpline
210
0.0
220
0.0
230
1.0
 70
    11
 71
     3
 72
    17
 73
    13
 74
     0
 42
0.0000000001
 43
0.0000000001
 40
0.0
 40
0.0
 40
0.0
 40
0.0
 40
1.0
 40
1.0
 40
1.0
 40
2.0
 40
2.0
 40
2.0
 40
3.0
 40
3.0
 40
3.0
 40
4.0
 40
4.0
 40
4.0
 40
4.0
 10
-2.268825954861111
 20
12.61764865451389
 30
0.0
 10
-2.268825954861111
 20
12.75821940104167
 30
0.0
 10
-2.154459635416667
 20
12.87258572048611
 30
0.0
 10
-2.013888888888889
 20
12.87258572048611
 30
0.0
 10
-1.873331705729167
 20
12.87258572048611
 30
0.0
 10
-1.758978949652778
 20
12.75821940104167
 30
0.0
 10
-1.758978949652778
 20
12.61764865451389
 30
0.0
 10
-1.758978949652778
 20
12.47709147135417
 30
0.0
 10
-1.873331705729167
 20
12.36273871527778
 30
0.0
 10
-2.013888888888889
 20
12.36273871527778
 30
0.0
 10
-2.154459635416667
 20
12.36273871527778
 30
0.0
 10
-2.268825954861111
 20
12.47709147135417
 30
0.0
 10
-2.268825954861111
 20
12.61764865451389
 30
0.0
  0
SPLINE
  5
49
330
1F
100
AcDbEntity
  8
Layer 1
370
     0
100
AcDbSpline
210
0.0
220
0.0
230
1.0
 70
    11
 71
     3
 72
    23
 73
    19
 74
     0
 42
0.0000000001
 43
0.0000000001
 40
0.0
 40
0.0
 40
0.0
 40
0.0
 40
1.0
 40
1.0
 40
1.0
 40
2.0
 40
2.0
 40
2.0
 40
3.0
 40
3.0
 40
3.0
 40
4.0
 40
4.0
 40
4.0
 40
5.0
 40
5.0
 40
5.0
 40
6.0
 40
6.0
 40
6.0
 40
6.0
 10
-4.576388888888888
 20
13.23000759548611
 30
0.0
 10
-4.576388888888888
 20
13.23000759548611
 30
0.0
 10
3.298611111111111
 20
13.23000759548611
 30
0.0
 10
3.298611111111111
 20
13.23000759548611
 30
0.0
 10
3.335774739583333
 20
13.23000759548611
 30
0.0
 10
3.366021050347222
 20
13.19976128472222
 30
0.0
 10
3.366021050347222
 20
13.16259765625
 30
0.0
 10
3.366021050347222
 20
13.12540690104167
 30
0.0
 10
3.335774739583333
 20
13.09516059027778
 30
0.0
 10
3.298611111111111
 20
13.09516059027778
 30
0.0
 10
3.298611111111111
 20
13.09516059027778
 30
0.0
 10
-4.576388888888888
 20
13.09516059027778
 30
0.0
 10
-4.576388888888888
 20
13.09516059027778
 30
0.0
 10
-4.613579644097222
 20
13.09516059027778
 30
0.0
 10
-4.643825954861111
 20
13.12540690104167
 30
0.0
 10
-4.643825954861111
 20
13.16259765625
 30
0.0
 10
-4.643825954861111
 20
13.19976128472222
 30
0.0
 10
-4.613579644097222
 20
13.23000759548611
 30
0.0
 10
-4.576388888888888
 20
13.23000759548611
 30
0.0
  0
SPLINE
  5
4A
330
1F
100
AcDbEntity
  8
Layer 1
370
     0
100
AcDbSpline
210
0.0
220
0.0
230
1.0
 70
    11
 71
     3
 72
    17
 73
    13
 74
     0
 42
0.0000000001
 43
0.0000000001
 40
0.0
 40
0.0
 40
0.0
 40
0.0
 40
1.0
 40
1.0
 40
1.0
 40
2.0
 40
2.0
 40
2.0
 40
3.0
 40
3.0
 40
3.0
 40
4.0
 40
4.0
 40
4.0
 40
4.0
 10
-5.013888888888888
 20
9.56057400173611
 30
0.0
 10
-4.873331705729166
 20
9.56057400173611
 30
0.0
 10
-4.758978949652778
 20
9.446221245659721
 30
0.0
 10
-4.758978949652778
 20
9.3056640625
 30
0.0
 10
-4.758978949652778
 20
9.165093315972221
 30
0.0
 10
-4.873331705729166
 20
9.050726996527777
 30
0.0
 10
-5.013888888888888
 20
9.050726996527777
 30
0.0
 10
-5.154459635416666
 20
9.050726996527777
 30
0.0
 10
-5.268825954861111
 20
9.165093315972221
 30
0.0
 10
-5.268825954861111
 20
9.3056640625
 30
0.0
 10
-5.268825954861111
 20
9.446221245659721
 30
0.0
 10
-5.154459635416666
 20
9.56057400173611
 30
0.0
 10
-5.013888888888888
 20
9.56057400173611
 30
0.0
  0
SPLINE
  5
4B
330
1F
100
AcDbEntity
  8
Layer 1
370
     0
100
AcDbSpline
210
0.0
220
0.0
230
1.0
 70
    11
 71
     3
 72
    17
 73
    13
 74
     0
 42
0.0000000001
 43
0.0000000001
 40
0.0
 40
0.0
 40
0.0
 40
0.0
 40
1.0
 40
1.0
 40
1.0
 40
2.0
 40
2.0
 40
2.0
 40
3.0
 40
3.0
 40
3.0
 40
4.0
 40
4.0
 40
4.0
 40
4.0
 10
-5.013888888888888
 20
2.060587565104167
 30
0.0
 10
-4.873331705729166
 20
2.060587565104167
 30
0.0
 10
-4.758978949652778
 20
1.946234809027778
 30
0.0
 10
-4.758978949652778
 20
1.8056640625
 30
0.0
 10
-4.758978949652778
 20
1.665093315972222
 30
0.0
 10
-4.873331705729166
 20
1.550740559895833
 30
0.0
 10
-5.013888888888888
 20
1.550740559895833
 30
0.0
 10
-5.154459635416666
 20
1.550740559895833
 30
0.0
 10
-5.268825954861111
 20
1.665093315972222
 30
0.0
 10
-5.268825954861111
 20
1.8056640625
 30
0.0
 10
-5.268825954861111
 20
1.946234809027778
 30
0.0
 10
-5.154459635416666
 20
2.060587565104167
 30
0.0
 10
-5.013888888888888
 20
2.060587565104167
 30
0.0
  0
SPLINE
  5
4C
330
1F
100
AcDbEntity
  8
Layer 1
370
     0
100
AcDbSpline
210
0.0
220
0.0
230
1.0
 70
    11
 71
     3
 72
    23
 73
    19
 74
     0
 42
0.0000000001
 43
0.0000000001
 40
0.0
 40
0.0
 40
0.0
 40
0.0
 40
1.0
 40
1.0
 40
1.0
 40
2.0
 40
2.0
 40
2.0
 40
3.0
 40
3.0
 40
3.0
 40
4.0
 40
4.0
 40
4.0
 40
5.0
 40
5.0
 40
5.0
 40
6.0
 40
6.0
 40
6.0
 40
6.0
 10
3.299099392361111
 20
-2.018771701388889
 30
0.0
 10
3.299099392361111
 20
-2.018771701388889
 30
0.0
 10
-5.200900607638888
 20
-2.018771701388889
 30
0.0
 10
-5.200900607638888
 20
-2.018771701388889
 30
0.0
 10
-5.238064236111111
 20
-2.018771701388889
 30
0.0
 10
-5.268310546875
 20
-1.988525390625
 30
0.0
 10
-5.268310546875
 20
-1.951348198784722
 30
0.0
 10
-5.268310546875
 20
-1.914171006944444
 30
0.0
 10
-5.238064236111111
 20
-1.883924696180555
 30
0.0
 10
-5.200900607638888
 20
-1.883924696180555
 30
0.0
 10
-5.200900607638888
 20
-1.883924696180555
 30
0.0
 10
3.299099392361111
 20
-1.883924696180555
 30
0.0
 10
3.299099392361111
 20
-1.883924696180555
 30
0.0
 10
3.336290147569444
 20
-1.883924696180555
 30
0.0
 10
3.366536458333333
 20
-1.914171006944444
 30
0.0
 10
3.366536458333333
 20
-1.951348198784722
 30
0.0
 10
3.366536458333333
 20
-1.988525390625
 30
0.0
 10
3.336290147569444
 20
-2.018771701388889
 30
0.0
 10
3.299099392361111
 20
-2.018771701388889
 30
0.0
  0
SPLINE
  5
4D
330
1F
100
AcDbEntity
  8
Layer 1
370
     0
100
AcDbSpline
210
0.0
220
0.0
230
1.0
 70
    11
 71
     3
 72
    23
 73
    19
 74
     0
 42
0.0000000001
 43
0.0000000001
 40
0.0
 40
0.0
 40
0.0
 40
0.0
 40
1.0
 40
1.0
 40
1.0
 40
2.0
 40
2.0
 40
2.0
 40
3.0
 40
3.0
 40
3.0
 40
4.0
 40
4.0
 40
4.0
 40
5.0
 40
5.0
 40
5.0
 40
6.0
 40
6.0
 40
6.0
 40
6.0
 10
12.42310926649306
 20
-2.018771701388889
 30
0.0
 10
12.42310926649306
 20
-2.018771701388889
 30
0.0
 10
3.923109266493055
 20
-2.018771701388889
 30
0.0
 10
3.923109266493055
 20
-2.018771701388889
 30
0.0
 10
3.885932074652778
 20
-2.018771701388889
 30
0.0
 10
3.855685763888889
 20
-1.988525390625
 30
0.0
 10
3.855685763888889
 20
-1.951348198784722
 30
0.0
 10
3.855685763888889
 20
-1.914171006944444
 30
0.0
 10
3.885932074652778
 20
-1.883924696180555
 30
0.0
 10
3.923109266493055
 20
-1.883924696180555
 30
0.0
 10
3.923109266493055
 20
-1.883924696180555
 30
0.0
 10
12.42310926649306
 20
-1.883924696180555
 30
0.0
 10
12.42310926649306
 20
-1.883924696180555
 30
0.0
 10
12.46028645833333
 20
-1.883924696180555
 30
0.0
 10
12.49053276909722
 20
-1.914171006944444
 30
0.0
 10
12.49053276909722
 20
-1.951348198784722
 30
0.0
 10
12.49053276909722
 20
-1.988525390625
 30
0.0
 10
12.46028645833333
 20
-2.018771701388889
 30
0.0
 10
12.42310926649306
 20
-2.018771701388889
 30
0.0
  0
SPLINE
  5
4E
330
1F
100
AcDbEntity
  8
Layer 1
370
     0
100
AcDbSpline
210
0.0
220
0.0
230
1.0
 70
    11
 71
     3
 72
    17
 73
    13
 74
     0
 42
0.0000000001
 43
0.0000000001
 40
0.0
 40
0.0
 40
0.0
 40
0.0
 40
1.0
 40
1.0
 40
1.0
 40
2.0
 40
2.0
 40
2.0
 40
3.0
 40
3.0
 40
3.0
 40
4.0
 40
4.0
 40
4.0
 40
4.0
 10
12.23611111111111
 20
1.319729275173611
 30
0.0
 10
12.09554036458333
 20
1.319729275173611
 30
0.0
 10
11.98118760850694
 20
1.43408203125
 30
0.0
 10
11.98118760850694
 20
1.574652777777778
 30
0.0
 10
11.98118760850694
 20
1.715223524305555
 30
0.0
 10
12.09554036458333
 20
1.829576280381944
 30
0.0
 10
12.23611111111111
 20
1.829576280381944
 30
0.0
 10
12.37668185763889
 20
1.829576280381944
 30
0.0
 10
12.49103461371528
 20
1.715223524305555
 30
0.0
 10
12.49103461371528
 20
1.574652777777778
 30
0.0
 10
12.49103461371528
 20
1.43408203125
 30
0.0
 10
12.37668185763889
 20
1.319729275173611
 30
0.0
 10
12.23611111111111
 20
1.319729275173611
 30
0.0
  0
SPLINE
  5
4F
330
1F
100
AcDbEntity
  8
Layer 1
370
     0
100
AcDbSpline
210
0.0
220
0.0
230
1.0
 70
    11
 71
     3
 72
    17
 73
    13
 74
     0
 42
0.0000000001
 43
0.0000000001
 40
0.0
 40
0.0
 40
0.0
 40
0.0
 40
1.0
 40
1.0
 40
1.0
 40
2.0
 40
2.0
 40
2.0
 40
3.0
 40
3.0
 40
3.0
 40
4.0
 40
4.0
 40
4.0
 40
4.0
 10
12.23611111111111
 20
6.319742838541666
 30
0.0
 10
12.09554036458333
 20
6.319742838541666
 30
0.0
 10
11.98118760850694
 20
6.434095594618055
 30
0.0
 10
11.98118760850694
 20
6.574652777777778
 30
0.0
 10
11.98118760850694
 20
6.715223524305555
 30
0.0
 10
12.09554036458333
 20
6.82958984375
 30
0.0
 10
12.23611111111111
 20
6.82958984375
 30
0.0
 10
12.37668185763889
 20
6.82958984375
 30
0.0
 10
12.49103461371528
 20
6.715223524305555
 30
0.0
 10
12.49103461371528
 20
6.574652777777778
 30
0.0
 10
12.49103461371528
 20
6.434095594618055
 30
0.0
 10
12.37668185763889
 20
6.319742838541666
 30
0.0
 10
12.23611111111111
 20
6.319742838541666
 30
0.0
  0
SPLINE
  5
50
330
1F
100
AcDbEntity
  8
Layer 1
370
     0
100
AcDbSpline
210
0.0
220
0.0
230
1.0
 70
    11
 71
     3
 72
    23
 73
    19
 74
     0
 42
0.0000000001
 43
0.0000000001
 40
0.0
 40
0.0
 40
0.0
 40
0.0
 40
1.0
 40
1.0
 40
1.0
 40
2.0
 40
2.0
 40
2.0
 40
3.0
 40
3.0
 40
3.0
 40
4.0
 40
4.0
 40
4.0
 40
5.0
 40
5.0
 40
5.0
 40
6.0
 40
6.0
 40
6.0
 40
6.0
 10
12.82945421006944
 20
-1.617038302951389
 30
0.0
 10
12.82945421006944
 20
-1.654215494791667
 30
0.0
 10
12.79920789930556
 20
-1.684461805555555
 30
0.0
 10
12.76203070746528
 20
-1.684461805555555
 30
0.0
 10
12.724853515625
 20
-1.684461805555555
 30
0.0
 10
12.69460720486111
 20
-1.654215494791667
 30
0.0
 10
12.69460720486111
 20
-1.617038302951389
 30
0.0
 10
12.69460720486111
 20
-1.617038302951389
 30
0.0
 10
12.69460720486111
 20
3.257961697048611
 30
0.0
 10
12.69460720486111
 20
3.257961697048611
 30
0.0
 10
12.69460720486111
 20
3.295138888888889
 30
0.0
 10
12.724853515625
 20
3.325385199652778
 30
0.0
 10
12.76203070746528
 20
3.325385199652778
 30
0.0
 10
12.79920789930556
 20
3.325385199652778
 30
0.0
 10
12.82945421006944
 20
3.295138888888889
 30
0.0
 10
12.82945421006944
 20
3.257961697048611
 30
0.0
 10
12.82945421006944
 20
3.257961697048611
 30
0.0
 10
12.82945421006944
 20
-1.617038302951389
 30
0.0
 10
12.82945421006944
 20
-1.617038302951389
 30
0.0
  0
SPLINE
  5
51
330
1F
100
AcDbEntity
  8
Layer 1
370
     0
100
AcDbSpline
210
0.0
220
0.0
230
1.0
 70
    11
 71
     3
 72
    23
 73
    19
 74
     0
 42
0.0000000001
 43
0.0000000001
 40
0.0
 40
0.0
 40
0.0
 40
0.0
 40
1.0
 40
1.0
 40
1.0
 40
2.0
 40
2.0
 40
2.0
 40
3.0
 40
3.0
 40
3.0
 40
4.0
 40
4.0
 40
4.0
 40
5.0
 40
5.0
 40
5.0
 40
6.0
 40
6.0
 40
6.0
 40
6.0
 10
12.82945421006944
 20
3.914211697048611
 30
0.0
 10
12.82945421006944
 20
3.877034505208333
 30
0.0
 10
12.79920789930556
 20
3.846788194444444
 30
0.0
 10
12.76203070746528
 20
3.846788194444444
 30
0.0
 10
12.724853515625
 20
3.846788194444444
 30
0.0
 10
12.69460720486111
 20
3.877034505208333
 30
0.0
 10
12.69460720486111
 20
3.914211697048611
 30
0.0
 10
12.69460720486111
 20
3.914211697048611
 30
0.0
 10
12.69460720486111
 20
8.78921169704861
 30
0.0
 10
12.69460720486111
 20
8.78921169704861
 30
0.0
 10
12.69460720486111
 20
8.82638888888889
 30
0.0
 10
12.724853515625
 20
8.856635199652777
 30
0.0
 10
12.76203070746528
 20
8.856635199652777
 30
0.0
 10
12.79920789930556
 20
8.856635199652777
 30
0.0
 10
12.82945421006944
 20
8.82638888888889
 30
0.0
 10
12.82945421006944
 20
8.78921169704861
 30
0.0
 10
12.82945421006944
 20
8.78921169704861
 30
0.0
 10
12.82945421006944
 20
3.914211697048611
 30
0.0
 10
12.82945421006944
 20
3.914211697048611
 30
0.0
  0
SPLINE
  5
52
330
1F
100
AcDbEntity
  8
Layer 1
370
     0
100
AcDbSpline
210
0.0
220
0.0
230
1.0
 70
    11
 71
     3
 72
    23
 73
    19
 74
     0
 42
0.0000000001
 43
0.0000000001
 40
0.0
 40
0.0
 40
0.0
 40
0.0
 40
1.0
 40
1.0
 40
1.0
 40
2.0
 40
2.0
 40
2.0
 40
3.0
 40
3.0
 40
3.0
 40
4.0
 40
4.0
 40
4.0
 40
5.0
 40
5.0
 40
5.0
 40
6.0
 40
6.0
 40
6.0
 40
6.0
 10
14.53803168402778
 20
9.054267035590277
 30
0.0
 10
14.53803168402778
 20
9.054267035590277
 30
0.0
 10
13.03803168402778
 20
9.054267035590277
 30
0.0
 10
13.03803168402778
 20
9.054267035590277
 30
0.0
 10
13.0008544921875
 20
9.054267035590277
 30
0.0
 10
12.97060818142361
 20
9.084513346354166
 30
0.0
 10
12.97060818142361
 20
9.121690538194445
 30
0.0
 10
12.97060818142361
 20
9.158867730034721
 30
0.0
 10
13.0008544921875
 20
9.18911404079861
 30
0.0
 10
13.03803168402778
 20
9.18911404079861
 30
0.0
 10
13.03803168402778
 20
9.18911404079861
 30
0.0
 10
14.53803168402778
 20
9.18911404079861
 30
0.0
 10
14.53803168402778
 20
9.18911404079861
 30
0.0
 10
14.57520887586806
 20
9.18911404079861
 30
0.0
 10
14.60545518663194
 20
9.158867730034721
 30
0.0
 10
14.60545518663194
 20
9.121690538194445
 30
0.0
 10
14.60545518663194
 20
9.084513346354166
 30
0.0
 10
14.57520887586806
 20
9.054267035590277
 30
0.0
 10
14.53803168402778
 20
9.054267035590277
 30
0.0
  0
SPLINE
  5
53
330
1F
100
AcDbEntity
  8
Layer 1
370
     0
100
AcDbSpline
210
0.0
220
0.0
230
1.0
 70
    11
 71
     3
 72
    17
 73
    13
 74
     0
 42
0.0000000001
 43
0.0000000001
 40
0.0
 40
0.0
 40
0.0
 40
0.0
 40
1.0
 40
1.0
 40
1.0
 40
2.0
 40
2.0
 40
2.0
 40
3.0
 40
3.0
 40
3.0
 40
4.0
 40
4.0
 40
4.0
 40
4.0
 10
18.03803168402778
 20
0.8410101996527777
 30
0.0
 10
18.19582790798611
 20
0.8410101996527777
 30
0.0
 10
18.32420518663194
 20
0.7126329210069444
 30
0.0
 10
18.32420518663194
 20
0.554836697048611
 30
0.0
 10
18.32420518663194
 20
0.3970404730902777
 30
0.0
 10
18.19582790798611
 20
0.2686631944444444
 30
0.0
 10
18.03803168402778
 20
0.2686631944444444
 30
0.0
 10
17.88023546006944
 20
0.2686631944444444
 30
0.0
 10
17.75185818142361
 20
0.3970404730902777
 30
0.0
 10
17.75185818142361
 20
0.554836697048611
 30
0.0
 10
17.75185818142361
 20
0.7126329210069444
 30
0.0
 10
17.88023546006944
 20
0.8410101996527777
 30
0.0
 10
18.03803168402778
 20
0.8410101996527777
 30
0.0
  0
SPLINE
  5
54
330
1F
100
AcDbEntity
  8
Layer 1
370
     0
100
AcDbSpline
210
0.0
220
0.0
230
1.0
 70
    11
 71
     3
 72
    26
 73
    22
 74
     0
 42
0.0000000001
 43
0.0000000001
 40
0.0
 40
0.0
 40
0.0
 40
0.0
 40
1.0
 40
1.0
 40
1.0
 40
2.0
 40
2.0
 40
2.0
 40
3.0
 40
3.0
 40
3.0
 40
4.0
 40
4.0
 40
4.0
 40
5.0
 40
5.0
 40
5.0
 40
6.0
 40
6.0
 40
6.0
 40
7.0
 40
7.0
 40
7.0
 40
7.0
 10
14.79536946614583
 20
12.61973741319444
 30
0.0
 10
14.79507107204861
 20
12.61973741319444
 30
0.0
 10
14.79477267795139
 20
12.61976453993056
 30
0.0
 10
14.79446072048611
 20
12.61981879340278
 30
0.0
 10
14.78948296440972
 20
12.62075466579861
 30
0.0
 10
14.78453233506944
 20
12.62183973524306
 30
0.0
 10
14.77960883246528
 20
12.62307400173611
 30
0.0
 10
14.7769775390625
 20
12.62372504340278
 30
0.0
 10
14.77536349826389
 20
12.62641059027778
 30
0.0
 10
14.77602810329861
 20
12.62904188368056
 30
0.0
 10
14.77667914496528
 20
12.63167317708333
 30
0.0
 10
14.77931043836806
 20
12.63330078125
 30
0.0
 10
14.78199598524306
 20
12.63262261284722
 30
0.0
 10
14.78672960069444
 20
12.63142903645833
 30
0.0
 10
14.79149034288194
 20
12.63039822048611
 30
0.0
 10
14.79627821180556
 20
12.62950303819444
 30
0.0
 10
14.7989501953125
 20
12.62898763020833
 30
0.0
 10
14.80071343315972
 20
12.62642415364583
 30
0.0
 10
14.80021158854167
 20
12.62375217013889
 30
0.0
 10
14.79976399739583
 20
12.62139214409722
 30
0.0
 10
14.79770236545139
 20
12.61973741319444
 30
0.0
 10
14.79536946614583
 20
12.61973741319444
 30
0.0
  0
SPLINE
  5
55
330
1F
100
AcDbEntity
  8
Layer 1
370
     0
100
AcDbSpline
210
0.0
220
0.0
230
1.0
 70
    11
 71
     3
 72
    17
 73
    13
 74
     0
 42
0.0000000001
 43
0.0000000001
 40
0.0
 40
0.0
 40
0.0
 40
0.0
 40
1.0
 40
1.0
 40
1.0
 40
2.0
 40
2.0
 40
2.0
 40
3.0
 40
3.0
 40
3.0
 40
4.0
 40
4.0
 40
4.0
 40
4.0
 10
18.03803168402778
 20
10.83987087673611
 30
0.0
 10
17.88023546006944
 20
10.83987087673611
 30
0.0
 10
17.75185818142361
 20
10.96823459201389
 30
0.0
 10
17.75185818142361
 20
11.12603081597222
 30
0.0
 10
17.75185818142361
 20
11.28382703993056
 30
0.0
 10
17.88023546006944
 20
11.41221788194444
 30
0.0
 10
18.03803168402778
 20
11.41221788194444
 30
0.0
 10
18.19582790798611
 20
11.41221788194444
 30
0.0
 10
18.32420518663194
 20
11.28382703993056
 30
0.0
 10
18.32420518663194
 20
11.12603081597222
 30
0.0
 10
18.32420518663194
 20
10.96823459201389
 30
0.0
 10
18.19582790798611
 20
10.83987087673611
 30
0.0
 10
18.03803168402778
 20
10.83987087673611
 30
0.0
  0
HATCH
  5
56
330
1F
100
AcDbEntity
  8
Layer 1
 62
     7
100
AcDbHatch
 10
0.0
 20
0.0
 30
0.0
210
0.0
220
0.0
230
1.0
  2
SOLID
 70
     1
 71
     0
 91
       26
 92
        1
 93
        1
 72
     4
 94
        3
 73
     0
 74
     1
 95
      608
 96
      604
 40
0.0
 40
0.0
 40
0.0
 40
0.0
 40
1.0
 40
1.0
 40
1.0
 40
2.0
 40
2.0
 40
2.0
 40
3.0
 40
3.0
 40
3.0
 40
4.0
 40
4.0
 40
4.0
 40
5.0
 40
5.0
 40
5.0
 40
6.0
 40
6.0
 40
6.0
 40
7.0
 40
7.0
 40
7.0
 40
8.0
 40
8.0
 40
8.0
 40
9.0
 40
9.0
 40
9.0
 40
10.0
 40
10.0
 40
10.0
 40
11.0
 40
11.0
 40
11.0
 40
12.0
 40
12.0
 40
12.0
 40
13.0
 40
13.0
 40
13.0
 40
14.0
 40
14.0
 40
14.0
 40
15.0
 40
15.0
 40
15.0
 40
16.0
 40
16.0
 40
16.0
 40
17.0
 40
17.0
 40
17.0
 40
18.0
 40
18.0
 40
18.0
 40
19.0
 40
19.0
 40
19.0
 40
20.0
 40
20.0
 40
20.0
 40
21.0
 40
21.0
 40
21.0
 40
22.0
 40
22.0
 40
22.0
 40
23.0
 40
23.0
 40
23.0
 40
24.0
 40
24.0
 40
24.0
 40
25.0
 40
25.0
 40
25.0
 40
26.0
 40
26.0
 40
26.0
 40
27.0
 40
27.0
 40
27.0
 40
28.0
 40
28.0
 40
28.0
 40
29.0
 40
29.0
 40
29.0
 40
30.0
 40
30.0
 40
30.0
 40
31.0
 40
31.0
 40
31.0
 40
32.0
 40
32.0
 40
32.0
 40
33.0
 40
33.0
 40
33.0
 40
34.0
 40
34.0
 40
34.0
 40
35.0
 40
35.0
 40
35.0
 40
36.0
 40
36.0
 40
36.0
 40
37.0
 40
37.0
 40
37.0
 40
38.0
 40
38.0
 40
38.0
 40
39.0
 40
39.0
 40
39.0
 40
40.0
 40
40.0
 40
40.0
 40
41.0
 40
41.0
 40
41.0
 40
42.0
 40
42.0
 40
42.0
 40
43.0
 40
43.0
 40
43.0
 40
44.0
 40
44.0
 40
44.0
 40
45.0
 40
45.0
 40
45.0
 40
46.0
 40
46.0
 40
46.0
 40
47.0
 40
47.0
 40
47.0
 40
48.0
 40
48.0
 40
48.0
 40
49.0
 40
49.0
 40
49.0
 40
50.0
 40
50.0
 40
50.0
 40
51.0
 40
51.0
 40
51.0
 40
52.0
 40
52.0
 40
52.0
 40
53.0
 40
53.0
 40
53.0
 40
54.0
 40
54.0
 40
54.0
 40
55.0
 40
55.0
 40
55.0
 40
56.0
 40
56.0
 40
56.0
 40
57.0
 40
57.0
 40
57.0
 40
58.0
 40
58.0
 40
58.0
 40
59.0
 40
59.0
 40
59.0
 40
60.0
 40
60.0
 40
60.0
 40
61.0
 40
61.0
 40
61.0
 40
62.0
 40
62.0
 40
62.0
 40
63.0
 40
63.0
 40
63.0
 40
64.0
 40
64.0
 40
64.0
 40
65.0
 40
65.0
 40
65.0
 40
66.0
 40
66.0
 40
66.0
 40
67.0
 40
67.0
 40
67.0
 40
68.0
 40
68.0
 40
68.0
 40
69.0
 40
69.0
 40
69.0
 40
70.0
 40
70.0
 40
70.0
 40
71.0
 40
71.0
 40
71.0
 40
72.0
 40
72.0
 40
72.0
 40
73.0
 40
73.0
 40
73.0
 40
74.0
 40
74.0
 40
74.0
 40
75.0
 40
75.0
 40
75.0
 40
76.0
 40
76.0
 40
76.0
 40
77.0
 40
77.0
 40
77.0
 40
78.0
 40
78.0
 40
78.0
 40
79.0
 40
79.0
 40
79.0
 40
80.0
 40
80.0
 40
80.0
 40
81.0
 40
81.0
 40
81.0
 40
82.0
 40
82.0
 40
82.0
 40
83.0
 40
83.0
 40
83.0
 40
84.0
 40
84.0
 40
84.0
 40
85.0
 40
85.0
 40
85.0
 40
86.0
 40
86.0
 40
86.0
 40
87.0
 40
87.0
 40
87.0
 40
88.0
 40
88.0
 40
88.0
 40
89.0
 40
89.0
 40
89.0
 40
90.0
 40
90.0
 40
90.0
 40
91.0
 40
91.0
 40
91.0
 40
92.0
 40
92.0
 40
92.0
 40
93.0
 40
93.0
 40
93.0
 40
94.0
 40
94.0
 40
94.0
 40
95.0
 40
95.0
 40
95.0
 40
96.0
 40
96.0
 40
96.0
 40
97.0
 40
97.0
 40
97.0
 40
98.0
 40
98.0
 40
98.0
 40
99.0
 40
99.0
 40
99.0
 40
100.0
 40
100.0
 40
100.0
 40
101.0
 40
101.0
 40
101.0
 40
102.0
 40
102.0
 40
102.0
 40
103.0
 40
103.0
 40
103.0
 40
104.0
 40
104.0
 40
104.0
 40
105.0
 40
105.0
 40
105.0
 40
106.0
 40
106.0
 40
106.0
 40
107.0
 40
107.0
 40
107.0
 40
108.0
 40
108.0
 40
108.0
 40
109.0
 40
109.0
 40
109.0
 40
110.0
 40
110.0
 40
110.0
 40
111.0
 40
111.0
 40
111.0
 40
112.0
 40
112.0
 40
112.0
 40
113.0
 40
113.0
 40
113.0
 40
114.0
 40
114.0
 40
114.0
 40
115.0
 40
115.0
 40
115.0
 40
116.0
 40
116.0
 40
116.0
 40
117.0
 40
117.0
 40
117.0
 40
118.0
 40
118.0
 40
118.0
 40
119.0
 40
119.0
 40
119.0
 40
120.0
 40
120.0
 40
120.0
 40
121.0
 40
121.0
 40
121.0
 40
122.0
 40
122.0
 40
122.0
 40
123.0
 40
123.0
 40
123.0
 40
124.0
 40
124.0
 40
124.0
 40
125.0
 40
125.0
 40
125.0
 40
126.0
 40
126.0
 40
126.0
 40
127.0
 40
127.0
 40
127.0
 40
128.0
 40
128.0
 40
128.0
 40
129.0
 40
129.0
 40
129.0
 40
130.0
 40
130.0
 40
130.0
 40
131.0
 40
131.0
 40
131.0
 40
132.0
 40
132.0
 40
132.0
 40
133.0
 40
133.0
 40
133.0
 40
134.0
 40
134.0
 40
134.0
 40
135.0
 40
135.0
 40
135.0
 40
136.0
 40
136.0
 40
136.0
 40
137.0
 40
137.0
 40
137.0
 40
138.0
 40
138.0
 40
138.0
 40
139.0
 40
139.0
 40
139.0
 40
140.0
 40
140.0
 40
140.0
 40
141.0
 40
141.0
 40
141.0
 40
142.0
 40
142.0
 40
142.0
 40
143.0
 40
143.0
 40
143.0
 40
144.0
 40
144.0
 40
144.0
 40
145.0
 40
145.0
 40
145.0
 40
146.0
 40
146.0
 40
146.0
 40
147.0
 40
147.0
 40
147.0
 40
148.0
 40
148.0
 40
148.0
 40
149.0
 40
149.0
 40
149.0
 40
150.0
 40
150.0
 40
150.0
 40
151.0
 40
151.0
 40
151.0
 40
152.0
 40
152.0
 40
152.0
 40
153.0
 40
153.0
 40
153.0
 40
154.0
 40
154.0
 40
154.0
 40
155.0
 40
155.0
 40
155.0
 40
156.0
 40
156.0
 40
156.0
 40
157.0
 40
157.0
 40
157.0
 40
158.0
 40
158.0
 40
158.0
 40
159.0
 40
159.0
 40
159.0
 40
160.0
 40
160.0
 40
160.0
 40
161.0
 40
161.0
 40
161.0
 40
162.0
 40
162.0
 40
162.0
 40
163.0
 40
163.0
 40
163.0
 40
164.0
 40
164.0
 40
164.0
 40
165.0
 40
165.0
 40
165.0
 40
166.0
 40
166.0
 40
166.0
 40
167.0
 40
167.0
 40
167.0
 40
168.0
 40
168.0
 40
168.0
 40
169.0
 40
169.0
 40
169.0
 40
170.0
 40
170.0
 40
170.0
 40
171.0
 40
171.0
 40
171.0
 40
172.0
 40
172.0
 40
172.0
 40
173.0
 40
173.0
 40
173.0
 40
174.0
 40
174.0
 40
174.0
 40
175.0
 40
175.0
 40
175.0
 40
176.0
 40
176.0
 40
176.0
 40
177.0
 40
177.0
 40
177.0
 40
178.0
 40
178.0
 40
178.0
 40
179.0
 40
179.0
 40
179.0
 40
180.0
 40
180.0
 40
180.0
 40
181.0
 40
181.0
 40
181.0
 40
182.0
 40
182.0
 40
182.0
 40
183.0
 40
183.0
 40
183.0
 40
184.0
 40
184.0
 40
184.0
 40
185.0
 40
185.0
 40
185.0
 40
186.0
 40
186.0
 40
186.0
 40
187.0
 40
187.0
 40
187.0
 40
188.0
 40
188.0
 40
188.0
 40
189.0
 40
189.0
 40
189.0
 40
190.0
 40
190.0
 40
190.0
 40
191.0
 40
191.0
 40
191.0
 40
192.0
 40
192.0
 40
192.0
 40
193.0
 40
193.0
 40
193.0
 40
194.0
 40
194.0
 40
194.0
 40
195.0
 40
195.0
 40
195.0
 40
196.0
 40
196.0
 40
196.0
 40
197.0
 40
197.0
 40
197.0
 40
198.0
 40
198.0
 40
198.0
 40
199.0
 40
199.0
 40
199.0
 40
200.0
 40
200.0
 40
200.0
 40
201.0
 40
201.0
 40
201.0
 40
201.0
 10
17.97153049045139
 20
12.02422417534722
 10
17.97153049045139
 20
12.02422417534722
 10
14.98682996961806
 20
12.58417426215278
 10
14.98682996961806
 20
12.58417426215278
 10
14.86456976996528
 20
12.60712348090278
 10
14.77712673611111
 20
12.71405707465278
 10
14.7789306640625
 20
12.83843315972222
 10
14.7789306640625
 20
12.83843315972222
 10
14.77943250868056
 20
12.87247721354167
 10
14.77943250868056
 20
12.87247721354167
 10
14.78038194444444
 20
12.93793402777778
 10
14.75579155815972
 20
12.99983723958333
 10
14.71017795138889
 20
13.04679361979167
 10
14.66456434461806
 20
13.09375
 10
14.6033935546875
 20
13.12014431423611
 10
14.53793674045139
 20
13.12109375
 10
14.53793674045139
 20
13.12109375
 10
14.53438313802083
 20
13.12112087673611
 10
14.53438313802083
 20
13.12112087673611
 10
14.53438313802083
 20
13.12112087673611
 10
13.03803168402778
 20
13.12112087673611
 10
13.03803168402778
 20
13.12112087673611
 10
12.90289984809028
 20
13.12112087673611
 10
12.79295518663194
 20
13.01117621527778
 10
12.79295518663194
 20
12.87603081597222
 10
12.79295518663194
 20
12.87603081597222
 10
12.79513888888889
 20
9.203423394097221
 10
12.79513888888889
 20
9.203423394097221
 10
12.79513888888889
 20
9.20315212673611
 10
12.79503038194444
 20
9.20290798611111
 10
12.79498969184028
 20
9.202650282118055
 10
12.79562717013889
 20
9.202446831597221
 10
12.79633246527778
 20
9.202473958333332
 10
12.796875
 20
9.201999240451388
 10
12.79823133680556
 20
9.200792100694445
 10
12.79953342013889
 20
9.199530707465277
 10
12.80079481336806
 20
9.198215060763888
 10
12.82291666666667
 20
9.174886067708332
 10
12.82310655381944
 20
9.13894314236111
 10
12.80257161458333
 20
9.115098741319445
 10
12.80240885416667
 20
9.114854600694445
 10
12.802490234375
 20
9.11452907986111
 10
12.80228678385417
 20
9.114298502604166
 10
12.80107964409722
 20
9.112955729166666
 10
12.79983181423611
 20
9.111667209201388
 10
12.79854329427083
 20
9.110419379340277
 10
12.79854329427083
 20
9.110419379340277
 10
12.79852973090278
 20
9.110405815972221
 10
12.79852973090278
 20
9.110405815972221
 10
12.79852973090278
 20
9.110405815972221
 10
12.79851616753472
 20
9.110405815972221
 10
12.79851616753472
 20
9.110392252604166
 10
12.79718695746528
 20
9.109130859375
 10
12.79580349392361
 20
9.10793728298611
 10
12.79437934027778
 20
9.106797960069445
 10
12.79336208767361
 20
9.105997721354166
 10
12.792236328125
 20
9.105414496527777
 10
12.79117838541667
 20
9.104682074652777
 10
12.78990342881944
 20
9.10378689236111
 10
12.78862847222222
 20
9.102891710069445
 10
12.78729926215278
 20
9.102105034722221
 10
12.78525119357639
 20
9.100911458333332
 10
12.78316243489583
 20
9.099907769097221
 10
12.78103298611111
 20
9.098958333333332
 10
12.77978515625
 20
9.098388671875
 10
12.778564453125
 20
9.0977783203125
 10
12.77728949652778
 20
9.097303602430555
 10
12.77479383680556
 20
9.096381293402777
 10
12.77225748697917
 20
9.09573025173611
 10
12.76969401041667
 20
9.095133463541666
 10
12.76869032118056
 20
9.094916449652777
 10
12.76771375868056
 20
9.094563802083332
 10
12.76671006944444
 20
9.09438747829861
 10
12.76310221354167
 20
9.09375
 10
12.75946723090278
 20
9.093370225694445
 10
12.75581868489583
 20
9.093370225694445
 10
12.75577799479167
 20
9.093370225694445
 10
12.7557373046875
 20
9.0933837890625
 10
12.75569661458333
 20
9.0933837890625
 10
12.75135633680556
 20
9.093397352430555
 10
12.74705674913194
 20
9.09389919704861
 10
12.74281141493056
 20
9.094807942708332
 10
12.741455078125
 20
9.095079210069445
 10
12.74018012152778
 20
9.095635308159721
 10
12.73883734809028
 20
9.096015082465277
 10
12.73597547743056
 20
9.09682888454861
 10
12.73312717013889
 20
9.09768337673611
 10
12.73038736979167
 20
9.09890407986111
 10
12.72878689236111
 20
9.099609375
 10
12.72732204861111
 20
9.100558810763888
 10
12.72578938802083
 20
9.101399739583332
 10
12.72345648871528
 20
9.102701822916666
 10
12.72116427951389
 20
9.10400390625
 10
12.71898057725694
 20
9.105631510416666
 10
12.71742078993056
 20
9.106770833333332
 10
12.71599663628472
 20
9.108113606770832
 10
12.71453179253472
 20
9.109429253472221
 10
12.71327039930556
 20
9.110541449652777
 10
12.71188693576389
 20
9.1114501953125
 10
12.71070692274306
 20
9.112684461805555
 10
12.70944552951389
 20
9.114013671875
 10
12.708251953125
 20
9.11538357204861
 10
12.70711263020833
 20
9.1168212890625
 10
12.70711263020833
 20
9.1168212890625
 10
12.70711263020833
 20
9.1168212890625
 10
12.70711263020833
 20
9.1168212890625
 10
12.70711263020833
 20
9.116834852430555
 10
12.70709906684028
 20
9.116834852430555
 10
12.70709906684028
 20
9.116834852430555
 10
12.70709906684028
 20
9.116834852430555
 10
12.70709906684028
 20
9.116834852430555
 10
12.70709906684028
 20
9.11684841579861
 10
12.68580457899306
 20
9.1436767578125
 10
12.69033474392361
 20
9.182807074652777
 10
12.71713595920139
 20
9.204087999131945
 10
12.71812608506944
 20
9.20486111111111
 10
12.71931966145833
 20
9.20510525173611
 10
12.72048611111111
 20
9.205050998263888
 10
12.72048611111111
 20
9.205050998263888
 10
12.14214409722222
 20
12.92431640625
 10
12.14214409722222
 20
12.92431640625
 10
12.14214409722222
 20
12.92431640625
 10
12.10923936631944
 20
13.13590494791667
 10
12.10923936631944
 20
13.13590494791667
 10
12.10921223958333
 20
13.13604058159722
 10
12.10926649305556
 20
13.13616265190972
 10
12.1092529296875
 20
13.13629828559028
 10
12.1092529296875
 20
13.13642035590278
 10
12.10918511284722
 20
13.13652886284722
 10
12.10918511284722
 20
13.13666449652778
 10
12.10918511284722
 20
13.13666449652778
 10
12.10918511284722
 20
13.18790690104167
 10
12.10918511284722
 20
13.18790690104167
 10
12.10915798611111
 20
13.18815104166667
 10
12.10904947916667
 20
13.18834092881944
 10
12.10904947916667
 20
13.18858506944444
 10
12.10904947916667
 20
13.18858506944444
 10
12.10904947916667
 20
15.18366156684028
 10
12.10904947916667
 20
15.18366156684028
 10
12.10904947916667
 20
15.18366156684028
 10
11.89998372395833
 20
15.18366156684028
 10
11.89998372395833
 20
15.18366156684028
 10
11.89998372395833
 20
15.18366156684028
 10
-4.677761501736111
 20
15.18366156684028
 10
-4.677761501736111
 20
15.18366156684028
 10
-4.677761501736111
 20
15.18366156684028
 10
-4.8868408203125
 20
15.18366156684028
 10
-4.8868408203125
 20
15.18366156684028
 10
-4.8868408203125
 20
15.18366156684028
 10
-4.886962890625
 20
13.18858506944444
 10
-4.886962890625
 20
13.18858506944444
 10
-4.886962890625
 20
13.18858506944444
 10
-4.886962890625
 20
13.13666449652778
 10
-4.886962890625
 20
13.13666449652778
 10
-4.886962890625
 20
13.13652886284722
 10
-4.887044270833333
 20
13.13640679253472
 10
-4.887044270833333
 20
13.13627115885417
 10
-4.887057834201388
 20
13.13614908854167
 10
-4.887017144097222
 20
13.13604058159722
 10
-4.887030707465278
 20
13.13590494791667
 10
-4.887030707465278
 20
13.13590494791667
 10
-4.919921875
 20
12.92431640625
 10
-4.919921875
 20
12.92431640625
 10
-4.919921875
 20
12.92431640625
 10
-4.919921875
 20
12.92431640625
 10
-4.919921875
 20
12.92431640625
 10
-4.919921875
 20
12.92431640625
 10
-4.919921875
 20
12.92431640625
 10
-4.919921875
 20
12.92431640625
 10
-4.919921875
 20
12.92431640625
 10
-5.496554904513888
 20
9.221164279513888
 10
-5.496554904513888
 20
9.221164279513888
 10
-5.495442708333333
 20
9.221123589409721
 10
-5.494316948784722
 20
9.220865885416666
 10
-5.493421766493055
 20
9.220079210069445
 10
-5.4920654296875
 20
9.2188720703125
 10
-5.490749782986111
 20
9.217610677083332
 10
-5.489488389756944
 20
9.216281467013888
 10
-5.467380099826388
 20
9.192979600694445
 10
-5.467203776041666
 20
9.157036675347221
 10
-5.487725151909722
 20
9.133192274305555
 10
-5.487874348958333
 20
9.132948133680555
 10
-5.48779296875
 20
9.132622612847221
 10
-5.488009982638888
 20
9.132392035590277
 10
-5.489203559027778
 20
9.131049262152777
 10
-5.490464952256944
 20
9.129747178819445
 10
-5.491767035590278
 20
9.128499348958332
 10
-5.491780598958333
 20
9.128472222222221
 10
-5.491794162326388
 20
9.128472222222221
 10
-5.491807725694444
 20
9.128472222222221
 10
-5.493109809027778
 20
9.127210828993055
 10
-5.494493272569444
 20
9.126030815972221
 10
-5.495903862847222
 20
9.124891493055555
 10
-5.495903862847222
 20
9.124891493055555
 10
-5.495903862847222
 20
9.124891493055555
 10
-5.495917426215278
 20
9.124891493055555
 10
-5.4969482421875
 20
9.124077690972221
 10
-5.498074001736111
 20
9.123480902777777
 10
-5.499131944444444
 20
9.122748480902777
 10
-5.500406901041666
 20
9.12185329861111
 10
-5.501668294270833
 20
9.120985243055555
 10
-5.502983940972222
 20
9.120198567708332
 10
-5.505045572916666
 20
9.118977864583332
 10
-5.507147894965278
 20
9.117974175347221
 10
-5.509290907118055
 20
9.117024739583332
 10
-5.510525173611111
 20
9.116455078125
 10
-5.511745876736111
 20
9.115858289930555
 10
-5.513007269965278
 20
9.11538357204861
 10
-5.515516493055555
 20
9.114447699652777
 10
-5.518093532986111
 20
9.113783094618055
 10
-5.520670572916666
 20
9.113199869791666
 10
-5.521647135416666
 20
9.112969292534721
 10
-5.522596571180555
 20
9.112643771701388
 10
-5.523573133680555
 20
9.112467447916666
 10
-5.527180989583333
 20
9.11181640625
 10
-5.530829535590278
 20
9.111436631944445
 10
-5.534478081597222
 20
9.111436631944445
 10
-5.534518771701388
 20
9.111436631944445
 10
-5.534559461805555
 20
9.111463758680555
 10
-5.534613715277778
 20
9.111463758680555
 10
-5.538926866319444
 20
9.111463758680555
 10
-5.543240017361111
 20
9.111979166666666
 10
-5.5474853515625
 20
9.112874348958332
 10
-5.548828125
 20
9.1131591796875
 10
-5.550103081597222
 20
9.113715277777777
 10
-5.551445855034722
 20
9.114095052083332
 10
-5.5543212890625
 20
9.114908854166666
 10
-5.557169596354166
 20
9.11574978298611
 10
-5.559922960069444
 20
9.116984049479166
 10
-5.561496310763888
 20
9.117689344618055
 10
-5.562947591145833
 20
9.118625217013888
 10
-5.564453125
 20
9.119466145833332
 10
-5.566813151041666
 20
9.120768229166666
 10
-5.569132486979166
 20
9.12209743923611
 10
-5.571329752604166
 20
9.123711480034721
 10
-5.5728759765625
 20
9.124850802951388
 10
-5.574286566840278
 20
9.126180013020832
 10
-5.575737847222222
 20
9.12746853298611
 10
-5.576999240451388
 20
9.128607855902777
 10
-5.578396267361111
 20
9.1295166015625
 10
-5.57958984375
 20
9.130777994791666
 10
-5.580851236979166
 20
9.132093641493055
 10
-5.582044813368055
 20
9.133463541666666
 10
-5.583197699652778
 20
9.134901258680555
 10
-5.593505859375
 20
9.147894965277777
 10
-5.59814453125
 20
9.164130316840277
 10
-5.596245659722222
 20
9.180609809027777
 10
-5.594346788194444
 20
9.197102864583332
 10
-5.586154513888888
 20
9.211859809027777
 10
-5.573160807291666
 20
9.22216796875
 10
-5.572455512152778
 20
9.222724066840277
 10
-5.571587456597222
 20
9.222737630208332
 10
-5.570746527777778
 20
9.222859700520832
 10
-5.570746527777778
 20
9.222859700520832
 10
-5.570746527777778
 20
12.89504665798611
 10
-5.570746527777778
 20
12.89504665798611
 10
-5.570746527777778
 20
13.03017849392361
 10
-5.680691189236111
 20
13.14010959201389
 10
-5.815823025173611
 20
13.14010959201389
 10
-5.815823025173611
 20
13.14010959201389
 10
-7.315823025173611
 20
13.14010959201389
 10
-7.315823025173611
 20
13.14010959201389
 10
-7.450954861111111
 20
13.14010959201389
 10
-7.560899522569444
 20
13.03017849392361
 10
-7.560899522569444
 20
12.89504665798611
 10
-7.560899522569444
 20
12.89504665798611
 10
-7.560899522569444
 20
12.85251193576389
 10
-7.560899522569444
 20
12.85251193576389
 10
-7.560899522569444
 20
12.72992621527778
 10
-7.648356119791666
 20
12.62455240885417
 10
-7.768853081597221
 20
12.60196940104167
 10
-7.768853081597221
 20
12.60196940104167
 10
-10.74921332465278
 20
12.04314507378472
 10
-10.74921332465278
 20
12.04314507378472
 10
-11.21110026041667
 20
11.95654296875
 10
-11.54462348090278
 20
11.56804741753472
 10
-11.56035698784722
 20
11.09837510850694
 10
-11.54619683159722
 20
10.67534722222222
 10
-11.26512315538194
 20
10.30683051215278
 10
-10.86089409722222
 20
10.18131510416667
 10
-10.86089409722222
 20
10.18131510416667
 10
-7.538384331597221
 20
9.149739583333332
 10
-7.538384331597221
 20
9.149739583333332
 10
-7.535793728298611
 20
9.14892578125
 10
-7.534342447916666
 20
9.146185980902777
 10
-7.53515625
 20
9.14358181423611
 10
-7.535576714409721
 20
9.142225477430555
 10
-7.536607530381944
 20
9.141357421875
 10
-7.537787543402778
 20
9.140787760416666
 10
-7.536105685763888
 20
9.140001085069445
 10
-7.534925672743055
 20
9.138319227430555
 10
-7.534925672743055
 20
9.136338975694445
 10
-7.534925672743055
 20
9.136338975694445
 10
-7.534925672743055
 20
8.95254177517361
 10
-7.534925672743055
 20
8.95254177517361
 10
-7.534925672743055
 20
8.95254177517361
 10
-7.534925672743055
 20
2.281317816840278
 10
-7.534925672743055
 20
2.281317816840278
 10
-7.534939236111111
 20
2.158718532986111
 10
-7.622395833333333
 20
2.0533447265625
 10
-7.742865668402778
 20
2.03076171875
 10
-7.742865668402778
 20
2.03076171875
 10
-10.72322591145833
 20
1.471937391493056
 10
-10.72322591145833
 20
1.471937391493056
 10
-11.16347927517361
 20
1.389404296875
 10
-11.49595811631944
 20
1.019924587673611
 10
-11.53176540798611
 20
0.5734456380208333
 10
-11.49595811631944
 20
0.1277533637152778
 10
-11.16347927517361
 20
-0.2417263454861111
 10
-10.72322591145833
 20
-0.3242730034722222
 10
-10.72322591145833
 20
-0.3242730034722222
 10
-7.742865668402778
 20
-0.883083767361111
 10
-7.742865668402778
 20
-0.883083767361111
 10
-7.622395833333333
 20
-0.9056803385416666
 10
-7.534939236111111
 20
-1.011054144965278
 10
-7.534925672743055
 20
-1.133639865451389
 10
-7.534925672743055
 20
-1.133639865451389
 10
-7.534925672743055
 20
-1.676161024305555
 10
-7.534925672743055
 20
-1.676161024305555
 10
-7.534925672743055
 20
-1.811292860243055
 10
-7.424994574652778
 20
-1.921237521701389
 10
-7.289849175347221
 20
-1.921237521701389
 10
-7.289849175347221
 20
-1.921237521701389
 10
-5.570963541666666
 20
-1.920423719618055
 10
-5.570963541666666
 20
-1.920423719618055
 10
-5.570963541666666
 20
-1.920383029513889
 10
-5.570963541666666
 20
-1.920342339409722
 10
-5.570963541666666
 20
-1.920301649305555
 10
-5.570963541666666
 20
-1.888495551215278
 10
-5.546847873263888
 20
-1.862508138020833
 10
-5.5159912109375
 20
-1.858913845486111
 10
-5.515462239583333
 20
-1.858669704861111
 10
-5.514919704861111
 20
-1.858479817708333
 10
-5.514309353298611
 20
-1.858425564236111
 10
-5.514295789930555
 20
-1.858425564236111
 10
-5.514295789930555
 20
-1.858425564236111
 10
-5.514295789930555
 20
-1.858425564236111
 10
-5.512478298611111
 20
-1.858289930555555
 10
-5.510674370659722
 20
-1.858194986979167
 10
-5.508856879340278
 20
-1.858194986979167
 10
-5.507039388020833
 20
-1.858194986979167
 10
-5.505235460069444
 20
-1.858289930555555
 10
-5.50341796875
 20
-1.858425564236111
 10
-5.50341796875
 20
-1.858425564236111
 10
-5.50341796875
 20
-1.858425564236111
 10
-5.50341796875
 20
-1.858425564236111
 10
-5.502197265625
 20
-1.858534071180555
 10
-5.501085069444444
 20
-1.858927408854167
 10
-5.4998779296875
 20
-1.859103732638889
 10
-5.497775607638888
 20
-1.859415690104167
 10
-5.495713975694444
 20
-1.859781901041667
 10
-5.493679470486111
 20
-1.860297309027778
 10
-5.491712782118055
 20
-1.860785590277778
 10
-5.489827473958333
 20
-1.861395941840278
 10
-5.487942165798611
 20
-1.862074110243055
 10
-5.486002604166666
 20
-1.862779405381944
 10
-5.484103732638888
 20
-1.863525390625
 10
-5.482259114583333
 20
-1.864407009548611
 10
-5.480455186631944
 20
-1.865275065104167
 10
-5.478732638888888
 20
-1.866224500868055
 10
-5.477037217881944
 20
-1.867255316840278
 10
-5.475301106770833
 20
-1.868299696180555
 10
-5.4736328125
 20
-1.869384765625
 10
-5.472005208333333
 20
-1.870591905381944
 10
-5.470431857638888
 20
-1.871758355034722
 10
-5.468953450520833
 20
-1.872992621527778
 10
-5.467502170138888
 20
-1.874308268229167
 10
-5.465983072916666
 20
-1.875678168402778
 10
-5.464531792534722
 20
-1.877088758680555
 10
-5.463161892361111
 20
-1.878594292534722
 10
-5.461859809027778
 20
-1.8800048828125
 10
-5.460679796006944
 20
-1.8814697265625
 10
-5.459526909722222
 20
-1.882988823784722
 10
-5.458265516493055
 20
-1.8846435546875
 10
-5.457085503472222
 20
-1.886338975694444
 10
-5.456000434027778
 20
-1.888115776909722
 10
-5.455010308159722
 20
-1.889743381076389
 10
-5.454128689236111
 20
-1.891411675347222
 10
-5.453287760416666
 20
-1.893120659722222
 10
-5.452365451388888
 20
-1.894992404513889
 10
-5.451524522569444
 20
-1.896864149305555
 10
-5.4508056640625
 20
-1.898817274305555
 10
-5.450113932291666
 20
-1.900689019097222
 10
-5.449544270833333
 20
-1.902587890625
 10
-5.449028862847222
 20
-1.904527452256944
 10
-5.448513454861111
 20
-1.906480577256944
 10
-5.448079427083333
 20
-1.908447265625
 10
-5.44775390625
 20
-1.910468207465278
 10
-5.447591145833333
 20
-1.911404079861111
 10
-5.447265625
 20
-1.912272135416667
 10
-5.447157118055555
 20
-1.913221571180555
 10
-5.447021484375
 20
-1.914388020833333
 10
-5.447170681423611
 20
-1.915635850694444
 10
-5.447102864583333
 20
-1.916829427083333
 10
-5.447035047743055
 20
-1.917995876736111
 10
-5.446750217013888
 20
-1.919108072916667
 10
-5.446750217013888
 20
-1.920301649305555
 10
-5.446750217013888
 20
-1.922132703993055
 10
-5.446831597222222
 20
-1.9239501953125
 10
-5.446994357638888
 20
-1.92578125
 10
-5.449842664930555
 20
-1.958034939236111
 10
-5.477023654513888
 20
-1.982408311631944
 10
-5.508816189236111
 20
-1.982408311631944
 10
-5.508870442708333
 20
-1.982408311631944
 10
-5.508924696180555
 20
-1.982394748263889
 10
-5.508978949652778
 20
-1.982394748263889
 10
-5.508978949652778
 20
-1.982394748263889
 10
-5.508978949652778
 20
-2.039265950520833
 10
-5.508978949652778
 20
-2.039265950520833
 10
-5.508978949652778
 20
-2.039265950520833
 10
-5.508978949652778
 20
-3.972344292534722
 10
-5.508978949652778
 20
-3.972344292534722
 10
-5.508978949652778
 20
-3.972344292534722
 10
-5.263888888888888
 20
-3.972344292534722
 10
-5.263888888888888
 20
-3.972344292534722
 10
-5.263888888888888
 20
-3.972344292534722
 10
12.48611111111111
 20
-3.972344292534722
 10
12.48611111111111
 20
-3.972344292534722
 10
12.48611111111111
 20
-3.972344292534722
 10
12.73118760850694
 20
-3.972344292534722
 10
12.73118760850694
 20
-3.972344292534722
 10
12.73118760850694
 20
-3.972344292534722
 10
12.73118760850694
 20
-2.039265950520833
 10
12.73118760850694
 20
-2.039265950520833
 10
12.73118760850694
 20
-2.039265950520833
 10
12.73118760850694
 20
-1.982394748263889
 10
12.73118760850694
 20
-1.982394748263889
 10
12.73113335503472
 20
-1.982394748263889
 10
12.7310791015625
 20
-1.982408311631944
 10
12.73102484809028
 20
-1.982408311631944
 10
12.71461317274306
 20
-1.982408311631944
 10
12.69886610243056
 20
-1.9759521484375
 10
12.68714735243056
 20
-1.9642333984375
 10
12.6766357421875
 20
-1.953708224826389
 10
12.67097981770833
 20
-1.9403076171875
 10
12.66959635416667
 20
-1.926554361979167
 10
12.66951497395833
 20
-1.92626953125
 10
12.66924370659722
 20
-1.926093207465278
 10
12.66921657986111
 20
-1.92578125
 10
12.66905381944444
 20
-1.9239501953125
 10
12.66895887586806
 20
-1.922132703993055
 10
12.66895887586806
 20
-1.920301649305555
 10
12.66895887586806
 20
-1.91943359375
 10
12.66917588975694
 20
-1.918619791666667
 10
12.66921657986111
 20
-1.917751736111111
 10
12.66925726996528
 20
-1.916775173611111
 10
12.66913519965278
 20
-1.915798611111111
 10
12.66921657986111
 20
-1.914835611979167
 10
12.6693115234375
 20
-1.913723415798611
 10
12.669677734375
 20
-1.912706163194444
 10
12.66982693142361
 20
-1.91162109375
 10
12.66998969184028
 20
-1.9105224609375
 10
12.66996256510417
 20
-1.909410264756944
 10
12.670166015625
 20
-1.908311631944444
 10
12.67039659288194
 20
-1.907185872395833
 10
12.67080349392361
 20
-1.9061279296875
 10
12.67108832465278
 20
-1.905015733506944
 10
12.67154947916667
 20
-1.903184678819444
 10
12.67210557725694
 20
-1.901421440972222
 10
12.6727294921875
 20
-1.899671766493055
 10
12.67308213975694
 20
-1.898654513888889
 10
12.67328559027778
 20
-1.897610134548611
 10
12.6737060546875
 20
-1.8966064453125
 10
12.67411295572917
 20
-1.895616319444444
 10
12.67469618055556
 20
-1.894721137152778
 10
12.67515733506944
 20
-1.893744574652778
 10
12.67598470052083
 20
-1.891994900173611
 10
12.67689344618056
 20
-1.890326605902778
 10
12.67787000868056
 20
-1.888671875
 10
12.67843967013889
 20
-1.887722439236111
 10
12.67884657118056
 20
-1.886732313368055
 10
12.67945692274306
 20
-1.885810004340278
 10
12.67998589409722
 20
-1.885023328993055
 10
12.6806640625
 20
-1.884358723958333
 10
12.68123372395833
 20
-1.883599175347222
 10
12.68246799045139
 20
-1.881917317708333
 10
12.68379720052083
 20
-1.880330403645833
 10
12.68519422743056
 20
-1.8787841796875
 10
12.68588595920139
 20
-1.878024631076389
 10
12.6864013671875
 20
-1.877156575520833
 10
12.6871337890625
 20
-1.876410590277778
 10
12.68714735243056
 20
-1.876397026909722
 10
12.6871337890625
 20
-1.876397026909722
 10
12.68714735243056
 20
-1.876383463541667
 10
12.68767632378472
 20
-1.8758544921875
 10
12.68831380208333
 20
-1.875515407986111
 10
12.68885633680556
 20
-1.875013563368055
 10
12.68895128038194
 20
-1.874918619791667
 10
12.68905978732639
 20
-1.874850802951389
 10
12.68915473090278
 20
-1.874769422743055
 10
12.69068739149306
 20
-1.873358832465278
 10
12.69228786892361
 20
-1.872056749131944
 10
12.69395616319444
 20
-1.870808919270833
 10
12.69498697916667
 20
-1.870022243923611
 10
12.69596354166667
 20
-1.869167751736111
 10
12.69704861111111
 20
-1.868448893229167
 10
12.69782172309028
 20
-1.867933485243055
 10
12.69862196180556
 20
-1.867526584201389
 10
12.69942220052083
 20
-1.867051866319444
 10
12.70091417100694
 20
-1.866156684027778
 10
12.70246039496528
 20
-1.865410698784722
 10
12.70403374565972
 20
-1.864651150173611
 10
12.70548502604167
 20
-1.863932291666667
 10
12.7069091796875
 20
-1.863213433159722
 10
12.70842827690972
 20
-1.862616644965278
 10
12.70926920572917
 20
-1.862277560763889
 10
12.71009657118056
 20
-1.8619384765625
 10
12.71096462673611
 20
-1.861640082465278
 10
12.71237521701389
 20
-1.861151801215278
 10
12.71384006076389
 20
-1.860853407118055
 10
12.71529134114583
 20
-1.8604736328125
 10
12.71712239583333
 20
-1.859998914930555
 10
12.71893988715278
 20
-1.859551323784722
 10
12.7208251953125
 20
-1.859225802951389
 10
12.72170681423611
 20
-1.859076605902778
 10
12.72256130642361
 20
-1.858818901909722
 10
12.72345648871528
 20
-1.858710394965278
 10
12.72477213541667
 20
-1.858547634548611
 10
12.72614203559028
 20
-1.858629014756944
 10
12.72748480902778
 20
-1.858561197916667
 10
12.72869194878472
 20
-1.858479817708333
 10
12.72984483506944
 20
-1.858194986979167
 10
12.73106553819444
 20
-1.858194986979167
 10
12.73288302951389
 20
-1.858194986979167
 10
12.73468695746528
 20
-1.858289930555555
 10
12.73650444878472
 20
-1.858425564236111
 10
12.77045355902778
 20
-1.8614501953125
 10
12.79558648003472
 20
-1.891316731770833
 10
12.79291449652778
 20
-1.9251708984375
 10
12.79292805989583
 20
-1.925238715277778
 10
12.79295518663194
 20
-1.92529296875
 10
12.79295518663194
 20
-1.925347222222222
 10
12.79295518663194
 20
-1.925347222222222
 10
12.79295518663194
 20
-1.940239800347222
 10
12.79295518663194
 20
-1.940239800347222
 10
12.79295518663194
 20
-1.940239800347222
 10
14.53803168402778
 20
-1.940239800347222
 10
14.53803168402778
 20
-1.940239800347222
 10
14.67316351996528
 20
-1.940239800347222
 10
14.78310818142361
 20
-1.830295138888889
 10
14.78310818142361
 20
-1.695163302951389
 10
14.78310818142361
 20
-1.695163302951389
 10
14.78310818142361
 20
-1.152642144097222
 10
14.78310818142361
 20
-1.152642144097222
 10
14.78310818142361
 20
-1.030042860243056
 10
14.87056477864583
 20
-0.9246690538194444
 10
14.99106174045139
 20
-0.9020860460069444
 10
14.99106174045139
 20
-0.9020860460069444
 10
17.97142198350694
 20
-0.34326171875
 10
17.97142198350694
 20
-0.34326171875
 10
18.41166178385416
 20
-0.2607286241319444
 10
18.74412706163194
 20
0.1087510850694444
 10
18.77992078993055
 20
0.5552300347222222
 10
18.74412706163194
 20
1.000922309027778
 10
18.41166178385416
 20
1.370402018229167
 10
17.97142198350694
 20
1.452935112847222
 10
17.97142198350694
 20
1.452935112847222
 10
14.99106174045139
 20
2.011759440104167
 10
14.99106174045139
 20
2.011759440104167
 10
14.87056477864583
 20
2.034342447916667
 10
14.78310818142361
 20
2.139716254340278
 10
14.78310818142361
 20
2.262315538194444
 10
14.78310818142361
 20
2.262315538194444
 10
14.78310818142361
 20
8.933539496527777
 10
14.78310818142361
 20
8.933539496527777
 10
14.78310818142361
 20
8.933539496527777
 10
14.78310818142361
 20
9.126030815972221
 10
14.78310818142361
 20
9.126030815972221
 10
14.78310818142361
 20
9.12612575954861
 10
14.78314887152778
 20
9.126193576388888
 10
14.78316243489583
 20
9.126288519965277
 10
14.78317599826389
 20
9.126627604166666
 10
14.78327094184028
 20
9.126925998263888
 10
14.78335232204861
 20
9.12722439236111
 10
14.78343370225694
 20
9.127549913194445
 10
14.78348795572917
 20
9.127848307291666
 10
14.78362358940972
 20
9.128146701388888
 10
14.78374565972222
 20
9.128404405381945
 10
14.783935546875
 20
9.128634982638888
 10
14.78411187065972
 20
9.128865559895832
 10
14.78431532118056
 20
9.129136827256945
 10
14.78447808159722
 20
9.12942165798611
 10
14.78472222222222
 20
9.129638671875
 10
14.78493923611111
 20
9.129828559027777
 10
14.78519694010417
 20
9.129964192708332
 10
14.78544108072917
 20
9.130113389756945
 10
14.78573947482639
 20
9.130316840277777
 10
14.78602430555556
 20
9.130506727430555
 10
14.78636338975694
 20
9.130615234375
 10
14.78643120659722
 20
9.13064236111111
 10
14.78648546006944
 20
9.130710177951388
 10
14.78656684027778
 20
9.1307373046875
 10
14.78656684027778
 20
9.1307373046875
 10
14.96199544270833
 20
9.185560438368055
 10
14.96199544270833
 20
9.185560438368055
 10
14.96199544270833
 20
9.185560438368055
 10
18.0848388671875
 20
10.16145833333333
 10
18.0848388671875
 20
10.16145833333333
 10
18.48838975694444
 20
10.28755696614583
 10
18.76877170138889
 20
10.65616861979167
 10
18.78256564670139
 20
11.07872178819444
 10
18.7672119140625
 20
11.54871961805556
 10
18.43372938368055
 20
11.93751356336806
 10
17.97153049045139
 20
12.02422417534722
 97
        0
 92
        1
 93
        1
 72
     4
 94
        3
 73
     0
 74
     1
 95
       17
 96
       13
 40
0.0
 40
0.0
 40
0.0
 40
0.0
 40
1.0
 40
1.0
 40
1.0
 40
2.0
 40
2.0
 40
2.0
 40
3.0
 40
3.0
 40
3.0
 40
4.0
 40
4.0
 40
4.0
 40
4.0
 10
-10.81582302517361
 20
10.85885959201389
 10
-10.97361924913194
 20
10.85885959201389
 10
-11.10199652777778
 20
10.98725043402778
 10
-11.10199652777778
 20
11.14504665798611
 10
-11.10199652777778
 20
11.30284288194444
 10
-10.97361924913194
 20
11.43120659722222
 10
-10.81582302517361
 20
11.43120659722222
 10
-10.65802680121528
 20
11.43120659722222
 10
-10.52964952256944
 20
11.30284288194444
 10
-10.52964952256944
 20
11.14504665798611
 10
-10.52964952256944
 20
10.98725043402778
 10
-10.65802680121528
 20
10.85885959201389
 10
-10.81582302517361
 20
10.85885959201389
 97
        0
 92
        1
 93
        1
 72
     4
 94
        3
 73
     0
 74
     1
 95
       26
 96
       22
 40
0.0
 40
0.0
 40
0.0
 40
0.0
 40
1.0
 40
1.0
 40
1.0
 40
2.0
 40
2.0
 40
2.0
 40
3.0
 40
3.0
 40
3.0
 40
4.0
 40
4.0
 40
4.0
 40
5.0
 40
5.0
 40
5.0
 40
6.0
 40
6.0
 40
6.0
 40
7.0
 40
7.0
 40
7.0
 40
7.0
 10
-7.557400173611111
 20
12.64207628038194
 10
-7.562310112847221
 20
12.64084201388889
 10
-7.5672607421875
 20
12.63975694444444
 10
-7.572238498263888
 20
12.63882107204861
 10
-7.572550455729166
 20
12.63875325520833
 10
-7.572862413194444
 20
12.63872612847222
 10
-7.573160807291666
 20
12.63872612847222
 10
-7.575480143229166
 20
12.63872612847222
 10
-7.577541775173611
 20
12.640380859375
 10
-7.577989366319444
 20
12.64274088541667
 10
-7.5784912109375
 20
12.64541286892361
 10
-7.576741536458333
 20
12.64798990885417
 10
-7.574069552951388
 20
12.64849175347222
 10
-7.569281684027778
 20
12.64938693576389
 10
-7.564507378472221
 20
12.65044487847222
 10
-7.559787326388888
 20
12.65162489149306
 10
-7.557196723090278
 20
12.65228949652778
 10
-7.554497612847221
 20
12.65068901909722
 10
-7.553819444444444
 20
12.64804416232639
 10
-7.553168402777778
 20
12.64539930555556
 10
-7.554768880208333
 20
12.64274088541667
 10
-7.557400173611111
 20
12.64207628038194
 97
        0
 92
        1
 93
        1
 72
     4
 94
        3
 73
     0
 74
     1
 95
       17
 96
       13
 40
0.0
 40
0.0
 40
0.0
 40
0.0
 40
1.0
 40
1.0
 40
1.0
 40
2.0
 40
2.0
 40
2.0
 40
3.0
 40
3.0
 40
3.0
 40
4.0
 40
4.0
 40
4.0
 40
4.0
 10
-10.78984917534722
 20
0.2876654730902777
 10
-10.94764539930556
 20
0.2876654730902777
 10
-11.07602267795139
 20
0.4160427517361111
 10
-11.07602267795139
 20
0.5738389756944444
 10
-11.07602267795139
 20
0.7316351996527778
 10
-10.94764539930556
 20
0.860012478298611
 10
-10.78984917534722
 20
0.860012478298611
 10
-10.63205295138889
 20
0.860012478298611
 10
-10.50367567274306
 20
0.7316351996527778
 10
-10.50367567274306
 20
0.5738389756944444
 10
-10.50367567274306
 20
0.4160427517361111
 10
-10.63205295138889
 20
0.2876654730902777
 10
-10.78984917534722
 20
0.2876654730902777
 97
        0
 92
        1
 93
        1
 72
     4
 94
        3
 73
     0
 74
     1
 95
       23
 96
       19
 40
0.0
 40
0.0
 40
0.0
 40
0.0
 40
1.0
 40
1.0
 40
1.0
 40
2.0
 40
2.0
 40
2.0
 40
3.0
 40
3.0
 40
3.0
 40
4.0
 40
4.0
 40
4.0
 40
5.0
 40
5.0
 40
5.0
 40
6.0
 40
6.0
 40
6.0
 40
6.0
 10
-5.802842881944444
 20
9.07326931423611
 10
-5.802842881944444
 20
9.07326931423611
 10
-7.302842881944444
 20
9.07326931423611
 10
-7.302842881944444
 20
9.07326931423611
 10
-7.340020073784721
 20
9.07326931423611
 10
-7.370266384548611
 20
9.103515625
 10
-7.370266384548611
 20
9.140679253472221
 10
-7.370266384548611
 20
9.177870008680555
 10
-7.340020073784721
 20
9.208116319444445
 10
-7.302842881944444
 20
9.208116319444445
 10
-7.302842881944444
 20
9.208116319444445
 10
-5.802842881944444
 20
9.208116319444445
 10
-5.802842881944444
 20
9.208116319444445
 10
-5.765665690104166
 20
9.208116319444445
 10
-5.735419379340278
 20
9.177870008680555
 10
-5.735419379340278
 20
9.140679253472221
 10
-5.735419379340278
 20
9.103515625
 10
-5.765665690104166
 20
9.07326931423611
 10
-5.802842881944444
 20
9.07326931423611
 97
        0
 92
        1
 93
        1
 72
     4
 94
        3
 73
     0
 74
     1
 95
       23
 96
       19
 40
0.0
 40
0.0
 40
0.0
 40
0.0
 40
1.0
 40
1.0
 40
1.0
 40
2.0
 40
2.0
 40
2.0
 40
3.0
 40
3.0
 40
3.0
 40
4.0
 40
4.0
 40
4.0
 40
5.0
 40
5.0
 40
5.0
 40
6.0
 40
6.0
 40
6.0
 40
6.0
 10
-5.472439236111111
 20
-1.598036024305555
 10
-5.472439236111111
 20
-1.635213216145833
 10
-5.502685546875
 20
-1.665459526909722
 10
-5.539849175347222
 20
-1.665459526909722
 10
-5.577039930555555
 20
-1.665459526909722
 10
-5.607286241319444
 20
-1.635213216145833
 10
-5.607286241319444
 20
-1.598036024305555
 10
-5.607286241319444
 20
-1.598036024305555
 10
-5.607286241319444
 20
3.276963975694444
 10
-5.607286241319444
 20
3.276963975694444
 10
-5.607286241319444
 20
3.314141167534722
 10
-5.577039930555555
 20
3.344387478298611
 10
-5.539849175347222
 20
3.344387478298611
 10
-5.502685546875
 20
3.344387478298611
 10
-5.472439236111111
 20
3.314141167534722
 10
-5.472439236111111
 20
3.276963975694444
 10
-5.472439236111111
 20
3.276963975694444
 10
-5.472439236111111
 20
-1.598036024305555
 10
-5.472439236111111
 20
-1.598036024305555
 97
        0
 92
        1
 93
        1
 72
     4
 94
        3
 73
     0
 74
     1
 95
       23
 96
       19
 40
0.0
 40
0.0
 40
0.0
 40
0.0
 40
1.0
 40
1.0
 40
1.0
 40
2.0
 40
2.0
 40
2.0
 40
3.0
 40
3.0
 40
3.0
 40
4.0
 40
4.0
 40
4.0
 40
5.0
 40
5.0
 40
5.0
 40
6.0
 40
6.0
 40
6.0
 40
6.0
 10
-5.472439236111111
 20
3.933213975694444
 10
-5.472439236111111
 20
3.896036783854167
 10
-5.502685546875
 20
3.865790473090278
 10
-5.539849175347222
 20
3.865790473090278
 10
-5.577039930555555
 20
3.865790473090278
 10
-5.607286241319444
 20
3.896036783854167
 10
-5.607286241319444
 20
3.933213975694444
 10
-5.607286241319444
 20
3.933213975694444
 10
-5.607286241319444
 20
8.808213975694445
 10
-5.607286241319444
 20
8.808213975694445
 10
-5.607286241319444
 20
8.845377604166666
 10
-5.577039930555555
 20
8.875623914930555
 10
-5.539849175347222
 20
8.875623914930555
 10
-5.502685546875
 20
8.875623914930555
 10
-5.472439236111111
 20
8.845377604166666
 10
-5.472439236111111
 20
8.808213975694445
 10
-5.472439236111111
 20
8.808213975694445
 10
-5.472439236111111
 20
3.933213975694444
 10
-5.472439236111111
 20
3.933213975694444
 97
        0
 92
        1
 93
        1
 72
     4
 94
        3
 73
     0
 74
     1
 95
       23
 96
       19
 40
0.0
 40
0.0
 40
0.0
 40
0.0
 40
1.0
 40
1.0
 40
1.0
 40
2.0
 40
2.0
 40
2.0
 40
3.0
 40
3.0
 40
3.0
 40
4.0
 40
4.0
 40
4.0
 40
5.0
 40
5.0
 40
5.0
 40
6.0
 40
6.0
 40
6.0
 40
6.0
 10
3.923611111111111
 20
13.23000759548611
 10
3.923611111111111
 20
13.23000759548611
 10
11.79861111111111
 20
13.23000759548611
 10
11.79861111111111
 20
13.23000759548611
 10
11.83578830295139
 20
13.23000759548611
 10
11.86603461371528
 20
13.19976128472222
 10
11.86603461371528
 20
13.16259765625
 10
11.86603461371528
 20
13.12540690104167
 10
11.83578830295139
 20
13.09516059027778
 10
11.79861111111111
 20
13.09516059027778
 10
11.79861111111111
 20
13.09516059027778
 10
3.923611111111111
 20
13.09516059027778
 10
3.923611111111111
 20
13.09516059027778
 10
3.886420355902778
 20
13.09516059027778
 10
3.856174045138889
 20
13.12540690104167
 10
3.856174045138889
 20
13.16259765625
 10
3.856174045138889
 20
13.19976128472222
 10
3.886420355902778
 20
13.23000759548611
 10
3.923611111111111
 20
13.23000759548611
 97
        0
 92
        1
 93
        1
 72
     4
 94
        3
 73
     0
 74
     1
 95
       17
 96
       13
 40
0.0
 40
0.0
 40
0.0
 40
0.0
 40
1.0
 40
1.0
 40
1.0
 40
2.0
 40
2.0
 40
2.0
 40
3.0
 40
3.0
 40
3.0
 40
4.0
 40
4.0
 40
4.0
 40
4.0
 10
11.86903211805556
 20
12.61764865451389
 10
11.86903211805556
 20
12.47709147135417
 10
11.75467936197917
 20
12.36273871527778
 10
11.61410861545139
 20
12.36273871527778
 10
11.47353786892361
 20
12.36273871527778
 10
11.35918511284722
 20
12.47709147135417
 10
11.35918511284722
 20
12.61764865451389
 10
11.35918511284722
 20
12.75821940104167
 10
11.47353786892361
 20
12.87258572048611
 10
11.61410861545139
 20
12.87258572048611
 10
11.75467936197917
 20
12.87258572048611
 10
11.86903211805556
 20
12.75821940104167
 10
11.86903211805556
 20
12.61764865451389
 97
        0
 92
        1
 93
        1
 72
     4
 94
        3
 73
     0
 74
     1
 95
       56
 96
       52
 40
0.0
 40
0.0
 40
0.0
 40
0.0
 40
1.0
 40
1.0
 40
1.0
 40
2.0
 40
2.0
 40
2.0
 40
3.0
 40
3.0
 40
3.0
 40
4.0
 40
4.0
 40
4.0
 40
5.0
 40
5.0
 40
5.0
 40
6.0
 40
6.0
 40
6.0
 40
7.0
 40
7.0
 40
7.0
 40
8.0
 40
8.0
 40
8.0
 40
9.0
 40
9.0
 40
9.0
 40
10.0
 40
10.0
 40
10.0
 40
11.0
 40
11.0
 40
11.0
 40
12.0
 40
12.0
 40
12.0
 40
13.0
 40
13.0
 40
13.0
 40
14.0
 40
14.0
 40
14.0
 40
15.0
 40
15.0
 40
15.0
 40
16.0
 40
16.0
 40
16.0
 40
17.0
 40
17.0
 40
17.0
 40
17.0
 10
-3.013888888888889
 20
0.0697292751736111
 10
-3.292317708333333
 20
0.0697292751736111
 10
-3.518825954861111
 20
0.2962375217013889
 10
-3.518825954861111
 20
0.5746527777777778
 10
-3.518825954861111
 20
0.5746527777777778
 10
-3.518825954861111
 20
0.8406575520833333
 10
-3.518825954861111
 20
0.8406575520833333
 10
-3.518825954861111
 20
0.8406575520833333
 10
-3.518825954861111
 20
9.137654622395832
 10
-3.518825954861111
 20
9.137654622395832
 10
-3.518825954861111
 20
9.137790256076388
 10
-3.518744574652778
 20
9.137912326388888
 10
-3.518744574652778
 20
9.138047960069445
 10
-3.518731011284722
 20
9.138170030381945
 10
-3.518771701388889
 20
9.138292100694445
 10
-3.518758138020833
 20
9.138414171006945
 10
-3.518758138020833
 20
9.138414171006945
 10
-3.2706298828125
 20
10.7332763671875
 10
-3.2706298828125
 20
10.7332763671875
 10
-3.232109917534722
 20
10.98087565104167
 10
-3.022284613715278
 20
11.16059027777778
 10
-2.771714952256944
 20
11.16059027777778
 10
-2.771714952256944
 20
11.16059027777778
 10
-0.6388888888888888
 20
11.16059027777778
 10
-0.6388888888888888
 20
11.16059027777778
 10
-0.6388888888888888
 20
11.16059027777778
 10
9.99392361111111
 20
11.16059027777778
 10
9.99392361111111
 20
11.16059027777778
 10
10.2445068359375
 20
11.16059027777778
 10
10.45433213975694
 20
10.98087565104167
 10
10.49285210503472
 20
10.7332763671875
 10
10.49285210503472
 20
10.7332763671875
 10
10.49285210503472
 20
10.73326280381944
 10
10.49285210503472
 20
10.73326280381944
 10
10.49285210503472
 20
10.73326280381944
 10
10.49285210503472
 20
10.73326280381944
 10
10.49285210503472
 20
10.73326280381944
 10
10.49285210503472
 20
10.73326280381944
 10
10.74098036024306
 20
9.138414171006945
 10
10.74098036024306
 20
9.138414171006945
 10
10.74098036024306
 20
9.138414171006945
 10
10.74103461371528
 20
0.8406575520833333
 10
10.74103461371528
 20
0.8406575520833333
 10
10.74103461371528
 20
0.8406575520833333
 10
10.74103461371528
 20
0.5746527777777778
 10
10.74103461371528
 20
0.5746527777777778
 10
10.74103461371528
 20
0.2962375217013889
 10
10.5145263671875
 20
0.0697292751736111
 10
10.23611111111111
 20
0.0697292751736111
 10
10.23611111111111
 20
0.0697292751736111
 10
-3.013888888888889
 20
0.0697292751736111
 10
-3.013888888888889
 20
0.0697292751736111
 97
        0
 92
        1
 93
        1
 72
     4
 94
        3
 73
     0
 74
     1
 95
       17
 96
       13
 40
0.0
 40
0.0
 40
0.0
 40
0.0
 40
1.0
 40
1.0
 40
1.0
 40
2.0
 40
2.0
 40
2.0
 40
3.0
 40
3.0
 40
3.0
 40
4.0
 40
4.0
 40
4.0
 40
4.0
 10
8.991034613715277
 20
-1.425347222222222
 10
8.991034613715277
 20
-1.56591796875
 10
8.87668185763889
 20
-1.680270724826389
 10
8.73611111111111
 20
-1.680270724826389
 10
8.595540364583332
 20
-1.680270724826389
 10
8.481187608506945
 20
-1.56591796875
 10
8.481187608506945
 20
-1.425347222222222
 10
8.481187608506945
 20
-1.284776475694444
 10
8.595540364583332
 20
-1.170423719618056
 10
8.73611111111111
 20
-1.170423719618056
 10
8.87668185763889
 20
-1.170423719618056
 10
8.991034613715277
 20
-1.284776475694444
 10
8.991034613715277
 20
-1.425347222222222
 97
        0
 92
        1
 93
        1
 72
     4
 94
        3
 73
     0
 74
     1
 95
       17
 96
       13
 40
0.0
 40
0.0
 40
0.0
 40
0.0
 40
1.0
 40
1.0
 40
1.0
 40
2.0
 40
2.0
 40
2.0
 40
3.0
 40
3.0
 40
3.0
 40
4.0
 40
4.0
 40
4.0
 40
4.0
 10
-1.258978949652778
 20
-1.425347222222222
 10
-1.258978949652778
 20
-1.56591796875
 10
-1.373331705729167
 20
-1.680270724826389
 10
-1.513888888888889
 20
-1.680270724826389
 10
-1.654459635416667
 20
-1.680270724826389
 10
-1.768825954861111
 20
-1.56591796875
 10
-1.768825954861111
 20
-1.425347222222222
 10
-1.768825954861111
 20
-1.284776475694444
 10
-1.654459635416667
 20
-1.170423719618056
 10
-1.513888888888889
 20
-1.170423719618056
 10
-1.373331705729167
 20
-1.170423719618056
 10
-1.258978949652778
 20
-1.284776475694444
 10
-1.258978949652778
 20
-1.425347222222222
 97
        0
 92
        1
 93
        1
 72
     4
 94
        3
 73
     0
 74
     1
 95
       17
 96
       13
 40
0.0
 40
0.0
 40
0.0
 40
0.0
 40
1.0
 40
1.0
 40
1.0
 40
2.0
 40
2.0
 40
2.0
 40
3.0
 40
3.0
 40
3.0
 40
4.0
 40
4.0
 40
4.0
 40
4.0
 10
-2.268825954861111
 20
12.61764865451389
 10
-2.268825954861111
 20
12.75821940104167
 10
-2.154459635416667
 20
12.87258572048611
 10
-2.013888888888889
 20
12.87258572048611
 10
-1.873331705729167
 20
12.87258572048611
 10
-1.758978949652778
 20
12.75821940104167
 10
-1.758978949652778
 20
12.61764865451389
 10
-1.758978949652778
 20
12.47709147135417
 10
-1.873331705729167
 20
12.36273871527778
 10
-2.013888888888889
 20
12.36273871527778
 10
-2.154459635416667
 20
12.36273871527778
 10
-2.268825954861111
 20
12.47709147135417
 10
-2.268825954861111
 20
12.61764865451389
 97
        0
 92
        1
 93
        1
 72
     4
 94
        3
 73
     0
 74
     1
 95
       23
 96
       19
 40
0.0
 40
0.0
 40
0.0
 40
0.0
 40
1.0
 40
1.0
 40
1.0
 40
2.0
 40
2.0
 40
2.0
 40
3.0
 40
3.0
 40
3.0
 40
4.0
 40
4.0
 40
4.0
 40
5.0
 40
5.0
 40
5.0
 40
6.0
 40
6.0
 40
6.0
 40
6.0
 10
-4.576388888888888
 20
13.23000759548611
 10
-4.576388888888888
 20
13.23000759548611
 10
3.298611111111111
 20
13.23000759548611
 10
3.298611111111111
 20
13.23000759548611
 10
3.335774739583333
 20
13.23000759548611
 10
3.366021050347222
 20
13.19976128472222
 10
3.366021050347222
 20
13.16259765625
 10
3.366021050347222
 20
13.12540690104167
 10
3.335774739583333
 20
13.09516059027778
 10
3.298611111111111
 20
13.09516059027778
 10
3.298611111111111
 20
13.09516059027778
 10
-4.576388888888888
 20
13.09516059027778
 10
-4.576388888888888
 20
13.09516059027778
 10
-4.613579644097222
 20
13.09516059027778
 10
-4.643825954861111
 20
13.12540690104167
 10
-4.643825954861111
 20
13.16259765625
 10
-4.643825954861111
 20
13.19976128472222
 10
-4.613579644097222
 20
13.23000759548611
 10
-4.576388888888888
 20
13.23000759548611
 97
        0
 92
        1
 93
        1
 72
     4
 94
        3
 73
     0
 74
     1
 95
       17
 96
       13
 40
0.0
 40
0.0
 40
0.0
 40
0.0
 40
1.0
 40
1.0
 40
1.0
 40
2.0
 40
2.0
 40
2.0
 40
3.0
 40
3.0
 40
3.0
 40
4.0
 40
4.0
 40
4.0
 40
4.0
 10
-5.013888888888888
 20
9.56057400173611
 10
-4.873331705729166
 20
9.56057400173611
 10
-4.758978949652778
 20
9.446221245659721
 10
-4.758978949652778
 20
9.3056640625
 10
-4.758978949652778
 20
9.165093315972221
 10
-4.873331705729166
 20
9.050726996527777
 10
-5.013888888888888
 20
9.050726996527777
 10
-5.154459635416666
 20
9.050726996527777
 10
-5.268825954861111
 20
9.165093315972221
 10
-5.268825954861111
 20
9.3056640625
 10
-5.268825954861111
 20
9.446221245659721
 10
-5.154459635416666
 20
9.56057400173611
 10
-5.013888888888888
 20
9.56057400173611
 97
        0
 92
        1
 93
        1
 72
     4
 94
        3
 73
     0
 74
     1
 95
       17
 96
       13
 40
0.0
 40
0.0
 40
0.0
 40
0.0
 40
1.0
 40
1.0
 40
1.0
 40
2.0
 40
2.0
 40
2.0
 40
3.0
 40
3.0
 40
3.0
 40
4.0
 40
4.0
 40
4.0
 40
4.0
 10
-5.013888888888888
 20
2.060587565104167
 10
-4.873331705729166
 20
2.060587565104167
 10
-4.758978949652778
 20
1.946234809027778
 10
-4.758978949652778
 20
1.8056640625
 10
-4.758978949652778
 20
1.665093315972222
 10
-4.873331705729166
 20
1.550740559895833
 10
-5.013888888888888
 20
1.550740559895833
 10
-5.154459635416666
 20
1.550740559895833
 10
-5.268825954861111
 20
1.665093315972222
 10
-5.268825954861111
 20
1.8056640625
 10
-5.268825954861111
 20
1.946234809027778
 10
-5.154459635416666
 20
2.060587565104167
 10
-5.013888888888888
 20
2.060587565104167
 97
        0
 92
        1
 93
        1
 72
     4
 94
        3
 73
     0
 74
     1
 95
       23
 96
       19
 40
0.0
 40
0.0
 40
0.0
 40
0.0
 40
1.0
 40
1.0
 40
1.0
 40
2.0
 40
2.0
 40
2.0
 40
3.0
 40
3.0
 40
3.0
 40
4.0
 40
4.0
 40
4.0
 40
5.0
 40
5.0
 40
5.0
 40
6.0
 40
6.0
 40
6.0
 40
6.0
 10
3.299099392361111
 20
-2.018771701388889
 10
3.299099392361111
 20
-2.018771701388889
 10
-5.200900607638888
 20
-2.018771701388889
 10
-5.200900607638888
 20
-2.018771701388889
 10
-5.238064236111111
 20
-2.018771701388889
 10
-5.268310546875
 20
-1.988525390625
 10
-5.268310546875
 20
-1.951348198784722
 10
-5.268310546875
 20
-1.914171006944444
 10
-5.238064236111111
 20
-1.883924696180555
 10
-5.200900607638888
 20
-1.883924696180555
 10
-5.200900607638888
 20
-1.883924696180555
 10
3.299099392361111
 20
-1.883924696180555
 10
3.299099392361111
 20
-1.883924696180555
 10
3.336290147569444
 20
-1.883924696180555
 10
3.366536458333333
 20
-1.914171006944444
 10
3.366536458333333
 20
-1.951348198784722
 10
3.366536458333333
 20
-1.988525390625
 10
3.336290147569444
 20
-2.018771701388889
 10
3.299099392361111
 20
-2.018771701388889
 97
        0
 92
        1
 93
        1
 72
     4
 94
        3
 73
     0
 74
     1
 95
       23
 96
       19
 40
0.0
 40
0.0
 40
0.0
 40
0.0
 40
1.0
 40
1.0
 40
1.0
 40
2.0
 40
2.0
 40
2.0
 40
3.0
 40
3.0
 40
3.0
 40
4.0
 40
4.0
 40
4.0
 40
5.0
 40
5.0
 40
5.0
 40
6.0
 40
6.0
 40
6.0
 40
6.0
 10
12.42310926649306
 20
-2.018771701388889
 10
12.42310926649306
 20
-2.018771701388889
 10
3.923109266493055
 20
-2.018771701388889
 10
3.923109266493055
 20
-2.018771701388889
 10
3.885932074652778
 20
-2.018771701388889
 10
3.855685763888889
 20
-1.988525390625
 10
3.855685763888889
 20
-1.951348198784722
 10
3.855685763888889
 20
-1.914171006944444
 10
3.885932074652778
 20
-1.883924696180555
 10
3.923109266493055
 20
-1.883924696180555
 10
3.923109266493055
 20
-1.883924696180555
 10
12.42310926649306
 20
-1.883924696180555
 10
12.42310926649306
 20
-1.883924696180555
 10
12.46028645833333
 20
-1.883924696180555
 10
12.49053276909722
 20
-1.914171006944444
 10
12.49053276909722
 20
-1.951348198784722
 10
12.49053276909722
 20
-1.988525390625
 10
12.46028645833333
 20
-2.018771701388889
 10
12.42310926649306
 20
-2.018771701388889
 97
        0
 92
        1
 93
        1
 72
     4
 94
        3
 73
     0
 74
     1
 95
       17
 96
       13
 40
0.0
 40
0.0
 40
0.0
 40
0.0
 40
1.0
 40
1.0
 40
1.0
 40
2.0
 40
2.0
 40
2.0
 40
3.0
 40
3.0
 40
3.0
 40
4.0
 40
4.0
 40
4.0
 40
4.0
 10
12.23611111111111
 20
1.319729275173611
 10
12.09554036458333
 20
1.319729275173611
 10
11.98118760850694
 20
1.43408203125
 10
11.98118760850694
 20
1.574652777777778
 10
11.98118760850694
 20
1.715223524305555
 10
12.09554036458333
 20
1.829576280381944
 10
12.23611111111111
 20
1.829576280381944
 10
12.37668185763889
 20
1.829576280381944
 10
12.49103461371528
 20
1.715223524305555
 10
12.49103461371528
 20
1.574652777777778
 10
12.49103461371528
 20
1.43408203125
 10
12.37668185763889
 20
1.319729275173611
 10
12.23611111111111
 20
1.319729275173611
 97
        0
 92
        1
 93
        1
 72
     4
 94
        3
 73
     0
 74
     1
 95
       17
 96
       13
 40
0.0
 40
0.0
 40
0.0
 40
0.0
 40
1.0
 40
1.0
 40
1.0
 40
2.0
 40
2.0
 40
2.0
 40
3.0
 40
3.0
 40
3.0
 40
4.0
 40
4.0
 40
4.0
 40
4.0
 10
12.23611111111111
 20
6.319742838541666
 10
12.09554036458333
 20
6.319742838541666
 10
11.98118760850694
 20
6.434095594618055
 10
11.98118760850694
 20
6.574652777777778
 10
11.98118760850694
 20
6.715223524305555
 10
12.09554036458333
 20
6.82958984375
 10
12.23611111111111
 20
6.82958984375
 10
12.37668185763889
 20
6.82958984375
 10
12.49103461371528
 20
6.715223524305555
 10
12.49103461371528
 20
6.574652777777778
 10
12.49103461371528
 20
6.434095594618055
 10
12.37668185763889
 20
6.319742838541666
 10
12.23611111111111
 20
6.319742838541666
 97
        0
 92
        1
 93
        1
 72
     4
 94
        3
 73
     0
 74
     1
 95
       23
 96
       19
 40
0.0
 40
0.0
 40
0.0
 40
0.0
 40
1.0
 40
1.0
 40
1.0
 40
2.0
 40
2.0
 40
2.0
 40
3.0
 40
3.0
 40
3.0
 40
4.0
 40
4.0
 40
4.0
 40
5.0
 40
5.0
 40
5.0
 40
6.0
 40
6.0
 40
6.0
 40
6.0
 10
12.82945421006944
 20
-1.617038302951389
 10
12.82945421006944
 20
-1.654215494791667
 10
12.79920789930556
 20
-1.684461805555555
 10
12.76203070746528
 20
-1.684461805555555
 10
12.724853515625
 20
-1.684461805555555
 10
12.69460720486111
 20
-1.654215494791667
 10
12.69460720486111
 20
-1.617038302951389
 10
12.69460720486111
 20
-1.617038302951389
 10
12.69460720486111
 20
3.257961697048611
 10
12.69460720486111
 20
3.257961697048611
 10
12.69460720486111
 20
3.295138888888889
 10
12.724853515625
 20
3.325385199652778
 10
12.76203070746528
 20
3.325385199652778
 10
12.79920789930556
 20
3.325385199652778
 10
12.82945421006944
 20
3.295138888888889
 10
12.82945421006944
 20
3.257961697048611
 10
12.82945421006944
 20
3.257961697048611
 10
12.82945421006944
 20
-1.617038302951389
 10
12.82945421006944
 20
-1.617038302951389
 97
        0
 92
        1
 93
        1
 72
     4
 94
        3
 73
     0
 74
     1
 95
       23
 96
       19
 40
0.0
 40
0.0
 40
0.0
 40
0.0
 40
1.0
 40
1.0
 40
1.0
 40
2.0
 40
2.0
 40
2.0
 40
3.0
 40
3.0
 40
3.0
 40
4.0
 40
4.0
 40
4.0
 40
5.0
 40
5.0
 40
5.0
 40
6.0
 40
6.0
 40
6.0
 40
6.0
 10
12.82945421006944
 20
3.914211697048611
 10
12.82945421006944
 20
3.877034505208333
 10
12.79920789930556
 20
3.846788194444444
 10
12.76203070746528
 20
3.846788194444444
 10
12.724853515625
 20
3.846788194444444
 10
12.69460720486111
 20
3.877034505208333
 10
12.69460720486111
 20
3.914211697048611
 10
12.69460720486111
 20
3.914211697048611
 10
12.69460720486111
 20
8.78921169704861
 10
12.69460720486111
 20
8.78921169704861
 10
12.69460720486111
 20
8.82638888888889
 10
12.724853515625
 20
8.856635199652777
 10
12.76203070746528
 20
8.856635199652777
 10
12.79920789930556
 20
8.856635199652777
 10
12.82945421006944
 20
8.82638888888889
 10
12.82945421006944
 20
8.78921169704861
 10
12.82945421006944
 20
8.78921169704861
 10
12.82945421006944
 20
3.914211697048611
 10
12.82945421006944
 20
3.914211697048611
 97
        0
 92
        1
 93
        1
 72
     4
 94
        3
 73
     0
 74
     1
 95
       23
 96
       19
 40
0.0
 40
0.0
 40
0.0
 40
0.0
 40
1.0
 40
1.0
 40
1.0
 40
2.0
 40
2.0
 40
2.0
 40
3.0
 40
3.0
 40
3.0
 40
4.0
 40
4.0
 40
4.0
 40
5.0
 40
5.0
 40
5.0
 40
6.0
 40
6.0
 40
6.0
 40
6.0
 10
14.53803168402778
 20
9.054267035590277
 10
14.53803168402778
 20
9.054267035590277
 10
13.03803168402778
 20
9.054267035590277
 10
13.03803168402778
 20
9.054267035590277
 10
13.0008544921875
 20
9.054267035590277
 10
12.97060818142361
 20
9.084513346354166
 10
12.97060818142361
 20
9.121690538194445
 10
12.97060818142361
 20
9.158867730034721
 10
13.0008544921875
 20
9.18911404079861
 10
13.03803168402778
 20
9.18911404079861
 10
13.03803168402778
 20
9.18911404079861
 10
14.53803168402778
 20
9.18911404079861
 10
14.53803168402778
 20
9.18911404079861
 10
14.57520887586806
 20
9.18911404079861
 10
14.60545518663194
 20
9.158867730034721
 10
14.60545518663194
 20
9.121690538194445
 10
14.60545518663194
 20
9.084513346354166
 10
14.57520887586806
 20
9.054267035590277
 10
14.53803168402778
 20
9.054267035590277
 97
        0
 92
        1
 93
        1
 72
     4
 94
        3
 73
     0
 74
     1
 95
       17
 96
       13
 40
0.0
 40
0.0
 40
0.0
 40
0.0
 40
1.0
 40
1.0
 40
1.0
 40
2.0
 40
2.0
 40
2.0
 40
3.0
 40
3.0
 40
3.0
 40
4.0
 40
4.0
 40
4.0
 40
4.0
 10
18.03803168402778
 20
0.8410101996527777
 10
18.19582790798611
 20
0.8410101996527777
 10
18.32420518663194
 20
0.7126329210069444
 10
18.32420518663194
 20
0.554836697048611
 10
18.32420518663194
 20
0.3970404730902777
 10
18.19582790798611
 20
0.2686631944444444
 10
18.03803168402778
 20
0.2686631944444444
 10
17.88023546006944
 20
0.2686631944444444
 10
17.75185818142361
 20
0.3970404730902777
 10
17.75185818142361
 20
0.554836697048611
 10
17.75185818142361
 20
0.7126329210069444
 10
17.88023546006944
 20
0.8410101996527777
 10
18.03803168402778
 20
0.8410101996527777
 97
        0
 92
        1
 93
        1
 72
     4
 94
        3
 73
     0
 74
     1
 95
       26
 96
       22
 40
0.0
 40
0.0
 40
0.0
 40
0.0
 40
1.0
 40
1.0
 40
1.0
 40
2.0
 40
2.0
 40
2.0
 40
3.0
 40
3.0
 40
3.0
 40
4.0
 40
4.0
 40
4.0
 40
5.0
 40
5.0
 40
5.0
 40
6.0
 40
6.0
 40
6.0
 40
7.0
 40
7.0
 40
7.0
 40
7.0
 10
14.79536946614583
 20
12.61973741319444
 10
14.79507107204861
 20
12.61973741319444
 10
14.79477267795139
 20
12.61976453993056
 10
14.79446072048611
 20
12.61981879340278
 10
14.78948296440972
 20
12.62075466579861
 10
14.78453233506944
 20
12.62183973524306
 10
14.77960883246528
 20
12.62307400173611
 10
14.7769775390625
 20
12.62372504340278
 10
14.77536349826389
 20
12.62641059027778
 10
14.77602810329861
 20
12.62904188368056
 10
14.77667914496528
 20
12.63167317708333
 10
14.77931043836806
 20
12.63330078125
 10
14.78199598524306
 20
12.63262261284722
 10
14.78672960069444
 20
12.63142903645833
 10
14.79149034288194
 20
12.63039822048611
 10
14.79627821180556
 20
12.62950303819444
 10
14.7989501953125
 20
12.62898763020833
 10
14.80071343315972
 20
12.62642415364583
 10
14.80021158854167
 20
12.62375217013889
 10
14.79976399739583
 20
12.62139214409722
 10
14.79770236545139
 20
12.61973741319444
 10
14.79536946614583
 20
12.61973741319444
 97
        0
 92
        1
 93
        1
 72
     4
 94
        3
 73
     0
 74
     1
 95
       17
 96
       13
 40
0.0
 40
0.0
 40
0.0
 40
0.0
 40
1.0
 40
1.0
 40
1.0
 40
2.0
 40
2.0
 40
2.0
 40
3.0
 40
3.0
 40
3.0
 40
4.0
 40
4.0
 40
4.0
 40
4.0
 10
18.03803168402778
 20
10.83987087673611
 10
17.88023546006944
 20
10.83987087673611
 10
17.75185818142361
 20
10.96823459201389
 10
17.75185818142361
 20
11.12603081597222
 10
17.75185818142361
 20
11.28382703993056
 10
17.88023546006944
 20
11.41221788194444
 10
18.03803168402778
 20
11.41221788194444
 10
18.19582790798611
 20
11.41221788194444
 10
18.32420518663194
 20
11.28382703993056
 10
18.32420518663194
 20
11.12603081597222
 10
18.32420518663194
 20
10.96823459201389
 10
18.19582790798611
 20
10.83987087673611
 10
18.03803168402778
 20
10.83987087673611
 97
        0
 75
     2
 76
     1
 98
        0
  0
ENDSEC
  0
SECTION
  2
OBJECTS
  0
DICTIONARY
  5
C
330
0
100
AcDbDictionary
281
     1
  3
ACAD_GROUP
350
D
  3
ACAD_LAYOUT
350
1A
  3
ACAD_MLINESTYLE
350
17
  3
ACAD_PLOTSETTINGS
350
19
  3
ACAD_PLOTSTYLENAME
350
E
  3
ACAD_TABLESTYLE
350
57
  3
ACAD_VISUALSTYLE
350
2A
  0
DICTIONARY
  5
D
102
{ACAD_REACTORS
330
C
102
}
330
C
100
AcDbDictionary
281
     1
  0
DICTIONARY
  5
1A
102
{ACAD_REACTORS
330
C
102
}
330
C
100
AcDbDictionary
281
     1
  3
Layout1
350
1E
  3
Layout2
350
26
  3
Model
350
22
  0
DICTIONARY
  5
17
102
{ACAD_REACTORS
330
C
102
}
330
C
100
AcDbDictionary
281
     1
  3
Standard
350
18
  0
DICTIONARY
  5
19
102
{ACAD_REACTORS
330
C
102
}
330
C
100
AcDbDictionary
281
     1
  0
ACDBDICTIONARYWDFLT
  5
E
102
{ACAD_REACTORS
330
C
102
}
330
C
100
AcDbDictionary
281
     1
  3
Normal
350
F
100
AcDbDictionaryWithDefault
340
F
  0
DICTIONARY
  5
57
102
{ACAD_REACTORS
330
C
102
}
330
C
100
AcDbDictionary
281
     1
  0
DICTIONARY
  5
2A
102
{ACAD_REACTORS
330
C
102
}
330
C
100
AcDbDictionary
281
     1
  3
2dWireframe
350
2F
  3
3D Hidden
350
31
  3
3dWireframe
350
30
  3
Basic
350
32
  3
Brighten
350
36
  3
ColorChange
350
3A
  3
Conceptual
350
34
  3
Dim
350
35
  3
Facepattern
350
39
  3
Flat
350
2B
  3
FlatWithEdges
350
2C
  3
Gouraud
350
2D
  3
GouraudWithEdges
350
2E
  3
Linepattern
350
38
  3
Realistic
350
33
  3
Thicken
350
37
  0
LAYOUT
  5
1E
102
{ACAD_REACTORS
330
1A
102
}
330
1A
100
AcDbPlotSettings
  1

  2
none_device
  4

  6

 40
0.0
 41
0.0
 42
0.0
 43
0.0
 44
0.0
 45
0.0
 46
0.0
 47
0.0
 48
0.0
 49
0.0
140
0.0
141
0.0
142
1.0
143
1.0
 70
   688
 72
     0
 73
     0
 74
     5
  7

 75
    16
 76
     0
 77
     2
 78
   300
147
1.0
148
0.0
149
0.0
100
AcDbLayout
  1
Layout1
 70
     1
 71
     1
 10
0.0
 20
0.0
 11
12.0
 21
9.0
 12
0.0
 22
0.0
 32
0.0
 14
1.000000000000000E+20
 24
1.000000000000000E+20
 34
1.000000000000000E+20
 15
-1.000000000000000E+20
 25
-1.000000000000000E+20
 35
-1.000000000000000E+20
146
0.0
 13
0.0
 23
0.0
 33
0.0
 16
1.0
 26
0.0
 36
0.0
 17
0.0
 27
1.0
 37
0.0
 76
     0
330
1B
  0
LAYOUT
  5
26
102
{ACAD_REACTORS
330
1A
102
}
330
1A
100
AcDbPlotSettings
  1

  2
none_device
  4

  6

 40
0.0
 41
0.0
 42
0.0
 43
0.0
 44
0.0
 45
0.0
 46
0.0
 47
0.0
 48
0.0
 49
0.0
140
0.0
141
0.0
142
1.0
143
1.0
 70
   688
 72
     0
 73
     0
 74
     5
  7

 75
    16
 76
     0
 77
     2
 78
   300
147
1.0
148
0.0
149
0.0
100
AcDbLayout
  1
Layout2
 70
     1
 71
     2
 10
0.0
 20
0.0
 11
0.0
 21
0.0
 12
0.0
 22
0.0
 32
0.0
 14
0.0
 24
0.0
 34
0.0
 15
0.0
 25
0.0
 35
0.0
146
0.0
 13
0.0
 23
0.0
 33
0.0
 16
1.0
 26
0.0
 36
0.0
 17
0.0
 27
1.0
 37
0.0
 76
     0
330
23
  0
LAYOUT
  5
22
102
{ACAD_REACTORS
330
1A
102
}
330
1A
100
AcDbPlotSettings
  1

  2
none_device
  4

  6

 40
0.0
 41
0.0
 42
0.0
 43
0.0
 44
0.0
 45
0.0
 46
0.0
 47
0.0
 48
0.0
 49
0.0
140
0.0
141
0.0
142
1.0
143
1.0
 70
  1712
 72
     0
 73
     0
 74
     0
  7

 75
     0
 76
     0
 77
     2
 78
   300
147
1.0
148
0.0
149
0.0
100
AcDbLayout
  1
Model
 70
     1
 71
     0
 10
0.0
 20
0.0
 11
12.0
 21
9.0
 12
0.0
 22
0.0
 32
0.0
 14
1.000000000000000E+20
 24
1.000000000000000E+20
 34
1.000000000000000E+20
 15
-1.000000000000000E+20
 25
-1.000000000000000E+20
 35
-1.000000000000000E+20
146
0.0
 13
0.0
 23
0.0
 33
0.0
 16
1.0
 26
0.0
 36
0.0
 17
0.0
 27
1.0
 37
0.0
 76
     0
330
1F
331
29
  0
MLINESTYLE
  5
18
102
{ACAD_REACTORS
330
17
102
}
330
17
100
AcDbMlineStyle
  2
Standard
 70
     0
  3

 62
   256
 51
90.0
 52
90.0
 71
     2
 49
0.5
 62
   256
  6
BYLAYER
 49
-0.5
 62
   256
  6
BYLAYER
  0
ACDBPLACEHOLDER
  5
F
102
{ACAD_REACTORS
330
E
102
}
330
E
  0
VISUALSTYLE
  5
2F
102
{ACAD_REACTORS
330
2A
102
}
330
2A
100
AcDbVisualStyle
  2
2dWireframe
 70
     4
 71
     0
 72
     2
 73
     0
 90
        0
 40
-0.6
 41
-30.0
 62
     5
 63
     7
421
 16777215
 74
     1
 91
        4
 64
     7
 65
   257
 75
     1
175
     1
 42
1.0
 92
        0
 66
   257
 43
1.0
 76
     1
 77
     6
 78
     2
 67
     7
 79
     5
170
     0
171
     0
290
     0
174
     0
 93
        1
 44
0.0
173
     0
291
     0
 45
0.0
1001
ACAD
1000
AcDbSavedByObjectVersion
1070
     0
  0
VISUALSTYLE
  5
31
102
{ACAD_REACTORS
330
2A
102
}
330
2A
100
AcDbVisualStyle
  2
3D Hidden
 70
     6
 71
     1
 72
     2
 73
     2
 90
        0
 40
-0.6
 41
-30.0
 62
     5
 63
     7
421
 16777215
 74
     2
 91
        2
 64
     7
 65
   257
 75
     2
175
     1
 42
40.0
 92
        0
 66
   257
 43
1.0
 76
     1
 77
     6
 78
     2
 67
     7
 79
     3
170
     0
171
     0
290
     0
174
     0
 93
        1
 44
0.0
173
     0
291
     0
 45
0.0
1001
ACAD
1000
AcDbSavedByObjectVersion
1070
     0
  0
VISUALSTYLE
  5
30
102
{ACAD_REACTORS
330
2A
102
}
330
2A
100
AcDbVisualStyle
  2
3dWireframe
 70
     5
 71
     0
 72
     2
 73
     0
 90
        0
 40
-0.6
 41
-30.0
 62
     5
 63
     7
421
 16777215
 74
     1
 91
        4
 64
     7
 65
   257
 75
     1
175
     1
 42
1.0
 92
        0
 66
   257
 43
1.0
 76
     1
 77
     6
 78
     2
 67
     7
 79
     5
170
     0
171
     0
290
     0
174
     0
 93
        1
 44
0.0
173
     0
291
     0
 45
0.0
1001
ACAD
1000
AcDbSavedByObjectVersion
1070
     0
  0
VISUALSTYLE
  5
32
102
{ACAD_REACTORS
330
2A
102
}
330
2A
100
AcDbVisualStyle
  2
Basic
 70
     7
 71
     1
 72
     0
 73
     1
 90
        0
 40
-0.6
 41
-30.0
 62
     5
 63
     7
421
 16777215
 74
     0
 91
        4
 64
     7
 65
   257
 75
     1
175
     1
 42
1.0
 92
        8
 66
     7
 43
1.0
 76
     1
 77
     6
 78
     2
 67
     7
 79
     5
170
     0
171
     0
290
     0
174
     0
 93
        1
 44
0.0
173
     0
291
     1
 45
0.0
1001
ACAD
1000
AcDbSavedByObjectVersion
1070
     0
  0
VISUALSTYLE
  5
36
102
{ACAD_REACTORS
330
2A
102
}
330
2A
100
AcDbVisualStyle
  2
Brighten
 70
    12
 71
     2
 72
     2
 73
     0
 90
        0
 40
-0.6
 41
-30.0
 62
     5
 63
     7
421
 16777215
 74
     1
 91
        4
 64
     7
 65
   257
 75
     1
175
     1
 42
1.0
 92
        8
 66
     7
 43
1.0
 76
     1
 77
     6
 78
     2
 67
     7
 79
     5
170
     0
171
     0
290
     0
174
     0
 93
        1
 44
50.0
173
     0
291
     1
 45
0.0
1001
ACAD
1000
AcDbSavedByObjectVersion
1070
     0
  0
VISUALSTYLE
  5
3A
102
{ACAD_REACTORS
330
2A
102
}
330
2A
100
AcDbVisualStyle
  2
ColorChange
 70
    16
 71
     2
 72
     2
 73
     3
 90
        0
 40
-0.6
 41
-30.0
 62
     5
 63
     8
421
  8421504
 74
     1
 91
        4
 64
     7
 65
   257
 75
     1
175
     1
 42
1.0
 92
        8
 66
     8
424
  8421504
 43
1.0
 76
     1
 77
     6
 78
     2
 67
     7
 79
     5
170
     0
171
     0
290
     0
174
     0
 93
        1
 44
0.0
173
     0
291
     1
 45
0.0
1001
ACAD
1000
AcDbSavedByObjectVersion
1070
     0
  0
VISUALSTYLE
  5
34
102
{ACAD_REACTORS
330
2A
102
}
330
2A
100
AcDbVisualStyle
  2
Conceptual
 70
     9
 71
     3
 72
     2
 73
     0
 90
        0
 40
-0.6
 41
-30.0
 62
     5
 63
     7
421
 16777215
 74
     2
 91
        2
 64
     7
 65
   257
 75
     1
175
     1
 42
40.0
 92
        8
 66
     7
 43
1.0
 76
     1
 77
     6
 78
     2
 67
     7
 79
     3
170
     0
171
     0
290
     0
174
     0
 93
        1
 44
0.0
173
     0
291
     0
 45
0.0
1001
ACAD
1000
AcDbSavedByObjectVersion
1070
     0
  0
VISUALSTYLE
  5
35
102
{ACAD_REACTORS
330
2A
102
}
330
2A
100
AcDbVisualStyle
  2
Dim
 70
    11
 71
     2
 72
     2
 73
     0
 90
        0
 40
-0.6
 41
-30.0
 62
     5
 63
     7
421
 16777215
 74
     1
 91
        4
 64
     7
 65
   257
 75
     1
175
     1
 42
1.0
 92
        8
 66
     7
 43
1.0
 76
     1
 77
     6
 78
     2
 67
     7
 79
     5
170
     0
171
     0
290
     0
174
     0
 93
        1
 44
-50.0
173
     0
291
     1
 45
0.0
1001
ACAD
1000
AcDbSavedByObjectVersion
1070
     0
  0
VISUALSTYLE
  5
39
102
{ACAD_REACTORS
330
2A
102
}
330
2A
100
AcDbVisualStyle
  2
Facepattern
 70
    15
 71
     2
 72
     2
 73
     0
 90
        0
 40
-0.6
 41
-30.0
 62
     5
 63
     7
421
 16777215
 74
     1
 91
        4
 64
     7
 65
   257
 75
     1
175
     1
 42
1.0
 92
        8
 66
     7
 43
1.0
 76
     1
 77
     6
 78
     2
 67
     7
 79
     5
170
     0
171
     0
290
     0
174
     0
 93
        1
 44
0.0
173
     0
291
     1
 45
0.0
1001
ACAD
1000
AcDbSavedByObjectVersion
1070
     0
  0
VISUALSTYLE
  5
2B
102
{ACAD_REACTORS
330
2A
102
}
330
2A
100
AcDbVisualStyle
  2
Flat
 70
     0
 71
     2
 72
     1
 73
     1
 90
        2
 40
-0.6
 41
30.0
 62
     5
 63
     7
421
 16777215
 74
     0
 91
        4
 64
     7
 65
   257
 75
     1
175
     1
 42
1.0
 92
        8
 66
     7
 43
1.0
 76
     1
 77
     6
 78
     2
 67
     7
 79
     5
170
     0
171
     0
290
     0
174
     0
 93
       13
 44
0.0
173
     0
291
     1
 45
0.0
1001
ACAD
1000
AcDbSavedByObjectVersion
1070
     0
  0
VISUALSTYLE
  5
2C
102
{ACAD_REACTORS
330
2A
102
}
330
2A
100
AcDbVisualStyle
  2
FlatWithEdges
 70
     1
 71
     2
 72
     1
 73
     1
 90
        2
 40
-0.6
 41
30.0
 62
     5
 63
     7
421
 16777215
 74
     1
 91
        4
 64
     7
 65
   257
 75
     1
175
     1
 42
1.0
 92
        0
 66
   257
 43
1.0
 76
     1
 77
     6
 78
     2
 67
     7
 79
     5
170
     0
171
     0
290
     0
174
     0
 93
       13
 44
0.0
173
     0
291
     1
 45
0.0
1001
ACAD
1000
AcDbSavedByObjectVersion
1070
     0
  0
VISUALSTYLE
  5
2D
102
{ACAD_REACTORS
330
2A
102
}
330
2A
100
AcDbVisualStyle
  2
Gouraud
 70
     2
 71
     2
 72
     2
 73
     1
 90
        2
 40
-0.6
 41
30.0
 62
     5
 63
     7
421
 16777215
 74
     0
 91
        4
 64
     7
 65
   257
 75
     1
175
     1
 42
1.0
 92
        0
 66
     7
 43
1.0
 76
     1
 77
     6
 78
     2
 67
     7
 79
     5
170
     0
171
     0
290
     0
174
     0
 93
       13
 44
0.0
173
     0
291
     1
 45
0.0
1001
ACAD
1000
AcDbSavedByObjectVersion
1070
     0
  0
VISUALSTYLE
  5
2E
102
{ACAD_REACTORS
330
2A
102
}
330
2A
100
AcDbVisualStyle
  2
GouraudWithEdges
 70
     3
 71
     2
 72
     2
 73
     1
 90
        2
 40
-0.6
 41
30.0
 62
     5
 63
     7
421
 16777215
 74
     1
 91
        4
 64
     7
 65
   257
 75
     1
175
     1
 42
1.0
 92
        0
 66
   257
 43
1.0
 76
     1
 77
     6
 78
     2
 67
     7
 79
     5
170
     0
171
     0
290
     0
174
     0
 93
       13
 44
0.0
173
     0
291
     1
 45
0.0
1001
ACAD
1000
AcDbSavedByObjectVersion
1070
     0
  0
VISUALSTYLE
  5
38
102
{ACAD_REACTORS
330
2A
102
}
330
2A
100
AcDbVisualStyle
  2
Linepattern
 70
    14
 71
     2
 72
     2
 73
     0
 90
        0
 40
-0.6
 41
-30.0
 62
     5
 63
     7
421
 16777215
 74
     1
 91
        4
 64
     7
 65
   257
 75
     7
175
     7
 42
1.0
 92
        8
 66
     7
 43
1.0
 76
     1
 77
     6
 78
     2
 67
     7
 79
     5
170
     0
171
     0
290
     0
174
     0
 93
        1
 44
0.0
173
     0
291
     1
 45
0.0
1001
ACAD
1000
AcDbSavedByObjectVersion
1070
     0
  0
VISUALSTYLE
  5
33
102
{ACAD_REACTORS
330
2A
102
}
330
2A
100
AcDbVisualStyle
  2
Realistic
 70
     8
 71
     2
 72
     2
 73
     0
 90
        0
 40
-0.6
 41
-30.0
 62
     5
 63
     7
421
 16777215
 74
     1
 91
        0
 64
     7
 65
   257
 75
     1
175
     1
 42
1.0
 92
        8
 66
     8
424
  7895160
 43
1.0
 76
     1
 77
     6
 78
     2
 67
     7
 79
     5
170
     0
171
     0
290
     0
174
     0
 93
       13
 44
0.0
173
     0
291
     0
 45
0.0
1001
ACAD
1000
AcDbSavedByObjectVersion
1070
     0
  0
VISUALSTYLE
  5
37
102
{ACAD_REACTORS
330
2A
102
}
330
2A
100
AcDbVisualStyle
  2
Thicken
 70
    13
 71
     2
 72
     2
 73
     0
 90
        0
 40
-0.6
 41
-30.0
 62
     5
 63
     7
421
 16777215
 74
     1
 91
        4
 64
     7
 65
   257
 75
     1
175
     1
 42
1.0
 92
       12
 66
     7
 43
1.0
 76
     1
 77
     6
 78
     2
 67
     7
 79
     5
170
     0
171
     0
290
     0
174
     0
 93
        1
 44
0.0
173
     0
291
     1
 45
0.0
1001
ACAD
1000
AcDbSavedByObjectVersion
1070
     0
  0
ENDSEC
  0
EOF
